  0
SECTION
  2
HEADER
  9
$ACADVER
  1
AC1015
  9
$ACADMAINTVER
 70
     6
  9
$DWGCODEPAGE
  3
ANSI_1254
  9
$INSBASE
 10
0.0
 20
0.0
 30
0.0
  9
$EXTMIN
 10
0.0
 20
0.0
 30
0.0
  9
$EXTMAX
 10
279.4
 20
215.9
 30
0.0
  9
$LIMMIN
 10
0.0
 20
0.0
  9
$LIMMAX
 10
279.4
 20
215.9
  9
$ORTHOMODE
 70
     0
  9
$REGENMODE
 70
     1
  9
$FILLMODE
 70
     1
  9
$QTEXTMODE
 70
     0
  9
$MIRRTEXT
 70
     1
  9
$LTSCALE
 40
1.0
  9
$ATTMODE
 70
     1
  9
$TEXTSIZE
 40
3.5
  9
$TRACEWID
 40
1.0
  9
$TEXTSTYLE
  7
Standard
  9
$CLAYER
  8
0
  9
$CELTYPE
  6
ByLayer
  9
$CECOLOR
 62
   256
  9
$CELTSCALE
 40
1.0
  9
$DISPSILH
 70
     0
  9
$DIMSCALE
 40
1.0
  9
$DIMASZ
 40
3.5
  9
$DIMEXO
 40
1.0
  9
$DIMDLI
 40
3.75
  9
$DIMRND
 40
0.0
  9
$DIMDLE
 40
0.0
  9
$DIMEXE
 40
1.0
  9
$DIMTP
 40
0.0
  9
$DIMTM
 40
0.0
  9
$DIMTXT
 40
3.5
  9
$DIMCEN
 40
2.5
  9
$DIMTSZ
 40
0.0
  9
$DIMTOL
 70
     0
  9
$DIMLIM
 70
     0
  9
$DIMTIH
 70
     1
  9
$DIMTOH
 70
     1
  9
$DIMSE1
 70
     0
  9
$DIMSE2
 70
     0
  9
$DIMTAD
 70
     1
  9
$DIMZIN
 70
     0
  9
$DIMBLK
  1

  9
$DIMASO
 70
     1
  9
$DIMSHO
 70
     1
  9
$DIMPOST
  1

  9
$DIMAPOST
  1

  9
$DIMALT
 70
     0
  9
$DIMALTD
 70
     3
  9
$DIMALTF
 40
0.0393700787
  9
$DIMLFAC
 40
1.0
  9
$DIMTOFL
 70
     1
  9
$DIMTVP
 40
0.0
  9
$DIMTIX
 70
     0
  9
$DIMSOXD
 70
     0
  9
$DIMSAH
 70
     0
  9
$DIMBLK1
  1

  9
$DIMBLK2
  1

  9
$DIMSTYLE
  2
ISO-25
  9
$DIMCLRD
 70
     0
  9
$DIMCLRE
 70
     0
  9
$DIMCLRT
 70
     0
  9
$DIMTFAC
 40
1.0
  9
$DIMGAP
 40
1.524
  9
$DIMJUST
 70
     0
  9
$DIMSD1
 70
     0
  9
$DIMSD2
 70
     0
  9
$DIMTOLJ
 70
     0
  9
$DIMTZIN
 70
     0
  9
$DIMALTZ
 70
     0
  9
$DIMALTTZ
 70
     0
  9
$DIMUPT
 70
     0
  9
$DIMDEC
 70
     2
  9
$DIMTDEC
 70
     2
  9
$DIMALTU
 70
     2
  9
$DIMALTTD
 70
     3
  9
$DIMTXSTY
  7
Standard
  9
$DIMAUNIT
 70
     0
  9
$DIMADEC
 70
     2
  9
$DIMALTRND
 40
0.0
  9
$DIMAZIN
 70
     0
  9
$DIMDSEP
 70
    44
  9
$DIMATFIT
 70
     3
  9
$DIMFRAC
 70
     0
  9
$DIMLDRBLK
  1

  9
$DIMLUNIT
 70
     2
  9
$DIMLWD
 70
    -2
  9
$DIMLWE
 70
    -2
  9
$DIMTMOVE
 70
     0
  9
$LUNITS
 70
     2
  9
$LUPREC
 70
     2
  9
$SKETCHINC
 40
1.0
  9
$FILLETRAD
 40
10.0
  9
$AUNITS
 70
     0
  9
$AUPREC
 70
     2
  9
$MENU
  1
.
  9
$ELEVATION
 40
0.0
  9
$PELEVATION
 40
0.0
  9
$THICKNESS
 40
0.0
  9
$LIMCHECK
 70
     0
  9
$CHAMFERA
 40
0.0
  9
$CHAMFERB
 40
0.0
  9
$CHAMFERC
 40
0.0
  9
$CHAMFERD
 40
0.0
  9
$SKPOLY
 70
     0
  9
$TDCREATE
 40
2458985.665996308
  9
$TDUCREATE
 40
2458985.540996308
  9
$TDUPDATE
 40
2458985.665996574
  9
$TDUUPDATE
 40
2458985.540996574
  9
$TDINDWG
 40
0.0000000116
  9
$TDUSRTIMER
 40
0.0000000116
  9
$USRTIMER
 70
     1
  9
$ANGBASE
 50
0.0
  9
$ANGDIR
 70
     0
  9
$PDMODE
 70
     0
  9
$PDSIZE
 40
-1.0
  9
$PLINEWID
 40
0.0
  9
$SPLFRAME
 70
     0
  9
$SPLINETYPE
 70
     6
  9
$SPLINESEGS
 70
     8
  9
$HANDSEED
  5
D2
  9
$SURFTAB1
 70
     6
  9
$SURFTAB2
 70
     6
  9
$SURFTYPE
 70
     6
  9
$SURFU
 70
     6
  9
$SURFV
 70
     6
  9
$UCSBASE
  2

  9
$UCSNAME
  2

  9
$UCSORG
 10
0.0
 20
0.0
 30
0.0
  9
$UCSXDIR
 10
1.0
 20
0.0
 30
0.0
  9
$UCSYDIR
 10
0.0
 20
1.0
 30
0.0
  9
$UCSORTHOREF
  2

  9
$UCSORTHOVIEW
 70
     0
  9
$UCSORGTOP
 10
0.0
 20
0.0
 30
0.0
  9
$UCSORGBOTTOM
 10
0.0
 20
0.0
 30
0.0
  9
$UCSORGLEFT
 10
0.0
 20
0.0
 30
0.0
  9
$UCSORGRIGHT
 10
0.0
 20
0.0
 30
0.0
  9
$UCSORGFRONT
 10
0.0
 20
0.0
 30
0.0
  9
$UCSORGBACK
 10
0.0
 20
0.0
 30
0.0
  9
$PUCSBASE
  2

  9
$PUCSNAME
  2

  9
$PUCSORG
 10
0.0
 20
0.0
 30
0.0
  9
$PUCSXDIR
 10
1.0
 20
0.0
 30
0.0
  9
$PUCSYDIR
 10
0.0
 20
1.0
 30
0.0
  9
$PUCSORTHOREF
  2

  9
$PUCSORTHOVIEW
 70
     0
  9
$PUCSORGTOP
 10
0.0
 20
0.0
 30
0.0
  9
$PUCSORGBOTTOM
 10
0.0
 20
0.0
 30
0.0
  9
$PUCSORGLEFT
 10
0.0
 20
0.0
 30
0.0
  9
$PUCSORGRIGHT
 10
0.0
 20
0.0
 30
0.0
  9
$PUCSORGFRONT
 10
0.0
 20
0.0
 30
0.0
  9
$PUCSORGBACK
 10
0.0
 20
0.0
 30
0.0
  9
$USERI1
 70
     0
  9
$USERI2
 70
     0
  9
$USERI3
 70
     0
  9
$USERI4
 70
     0
  9
$USERI5
 70
     0
  9
$USERR1
 40
0.0
  9
$USERR2
 40
0.0
  9
$USERR3
 40
0.0
  9
$USERR4
 40
0.0
  9
$USERR5
 40
0.0
  9
$WORLDVIEW
 70
     1
  9
$SHADEDGE
 70
     3
  9
$SHADEDIF
 70
    70
  9
$TILEMODE
 70
     1
  9
$MAXACTVP
 70
    64
  9
$PINSBASE
 10
0.0
 20
0.0
 30
0.0
  9
$PLIMCHECK
 70
     0
  9
$PEXTMIN
 10
1.0000000000E+20
 20
1.0000000000E+20
 30
1.0000000000E+20
  9
$PEXTMAX
 10
-1.0000000000E+20
 20
-1.0000000000E+20
 30
-1.0000000000E+20
  9
$PLIMMIN
 10
0.0
 20
0.0
  9
$PLIMMAX
 10
420.0
 20
297.0
  9
$UNITMODE
 70
     0
  9
$VISRETAIN
 70
     1
  9
$PLINEGEN
 70
     0
  9
$PSLTSCALE
 70
     1
  9
$TREEDEPTH
 70
  3020
  9
$CMLSTYLE
  2
Standard
  9
$CMLJUST
 70
     0
  9
$CMLSCALE
 40
20.0
  9
$PROXYGRAPHICS
 70
     1
  9
$MEASUREMENT
 70
     1
  9
$CELWEIGHT
370
    -1
  9
$ENDCAPS
280
     0
  9
$JOINSTYLE
280
     0
  9
$LWDISPLAY
290
     1
  9
$INSUNITS
 70
     4
  9
$HYPERLINKBASE
  1

  9
$STYLESHEET
  1

  9
$XEDIT
290
     1
  9
$CEPSNTYPE
380
     0
  9
$PSTYLEMODE
290
     1
  9
$FINGERPRINTGUID
  2
{8507212a-11b3-4443-b123-f0afa8a0da22}
  9
$VERSIONGUID
  2
{FAEB1C32-E019-11D5-929B-00C0DF256EC4}
  9
$EXTNAMES
290
     1
  9
$PSVPSCALE
 40
0.0
  9
$OLESTARTUP
290
     0
  0
ENDSEC
  0
SECTION
  2
CLASSES
  0
CLASS
  1
ACDBDICTIONARYWDFLT
  2
AcDbDictionaryWithDefault
  3
ObjectDBX Classes
 90
        0
280
     0
281
     0
  0
CLASS
  1
VISUALSTYLE
  2
AcDbVisualStyle
  3
ObjectDBX Classes
 90
     4095
280
     0
281
     0
  0
CLASS
  1
MATERIAL
  2
AcDbMaterial
  3
ObjectDBX Classes
 90
     1153
280
     0
281
     0
  0
CLASS
  1
SCALE
  2
AcDbScale
  3
ObjectDBX Classes
 90
     1153
280
     0
281
     0
  0
CLASS
  1
TABLESTYLE
  2
AcDbTableStyle
  3
ObjectDBX Classes
 90
     4095
280
     0
281
     0
  0
CLASS
  1
MLEADERSTYLE
  2
AcDbMLeaderStyle
  3
ACDB_MLEADERSTYLE_CLASS
 90
     4095
280
     0
281
     0
  0
CLASS
  1
SUN
  2
AcDbSun
  3
SCENEOE
 90
     1153
280
     0
281
     0
  0
CLASS
  1
ACDBPLACEHOLDER
  2
AcDbPlaceHolder
  3
ObjectDBX Classes
 90
        0
280
     0
281
     0
  0
CLASS
  1
LAYOUT
  2
AcDbLayout
  3
ObjectDBX Classes
 90
        0
280
     0
281
     0
  0
ENDSEC
  0
SECTION
  2
TABLES
  0
TABLE
  2
VPORT
  5
8
330
0
100
AcDbSymbolTable
 70
     1
  0
VPORT
  5
29
330
8
100
AcDbSymbolTableRecord
100
AcDbViewportTableRecord
  2
*Active
 70
     0
 10
0.0
 20
0.0
 11
1.0
 21
1.0
 12
139.7
 22
107.95
 13
0.0
 23
0.0
 14
10.0
 24
10.0
 15
10.0
 25
10.0
 16
0.0
 26
0.0
 36
1.0
 17
0.0
 27
0.0
 37
0.0
 40
215.9
 41
1.2941176471
 42
50.0
 43
0.0
 44
0.0
 50
0.0
 51
0.0
 71
     0
 72
  2000
 73
     1
 74
     3
 75
     0
 76
     0
 77
     0
 78
     0
281
     0
 65
     1
110
0.0
120
0.0
130
0.0
111
1.0
121
0.0
131
0.0
112
0.0
122
1.0
132
0.0
 79
     0
146
0.0
  0
ENDTAB
  0
TABLE
  2
LTYPE
  5
5
330
0
100
AcDbSymbolTable
 70
     6
  0
LTYPE
  5
14
330
5
100
AcDbSymbolTableRecord
100
AcDbLinetypeTableRecord
  2
ByBlock
 70
     0
  3

 72
    65
 73
     0
 40
0.0
  0
LTYPE
  5
15
330
5
100
AcDbSymbolTableRecord
100
AcDbLinetypeTableRecord
  2
ByLayer
 70
     0
  3

 72
    65
 73
     0
 40
0.0
  0
LTYPE
  5
16
330
5
100
AcDbSymbolTableRecord
100
AcDbLinetypeTableRecord
  2
Continuous
 70
     0
  3
Solid line
 72
    65
 73
     0
 40
0.0
  0
LTYPE
  5
6E
330
5
100
AcDbSymbolTableRecord
100
AcDbLinetypeTableRecord
  2
HIDDEN
 70
     0
  3
Hidden __ __ __ __ __ __ __ __ __ __ __ __ __ __
 72
    65
 73
     2
 40
1.905
 49
1.27
 74
     0
 49
-0.635
 74
     0
  0
LTYPE
  5
6F
330
5
100
AcDbSymbolTableRecord
100
AcDbLinetypeTableRecord
  2
PHANTOM
 70
     0
  3
Phantom ______  __  __  ______  __  __  ______
 72
    65
 73
     6
 40
12.7
 49
6.35
 74
     0
 49
-1.27
 74
     0
 49
1.27
 74
     0
 49
-1.27
 74
     0
 49
1.27
 74
     0
 49
-1.27
 74
     0
  0
LTYPE
  5
70
330
5
100
AcDbSymbolTableRecord
100
AcDbLinetypeTableRecord
  2
CENTER
 70
     0
  3
Center ____ _ ____ _ ____ _ ____ _ ____ _ ____
 72
    65
 73
     4
 40
10.16
 49
6.35
 74
     0
 49
-1.27
 74
     0
 49
1.27
 74
     0
 49
-1.27
 74
     0
  0
LTYPE
  5
71
330
5
100
AcDbSymbolTableRecord
100
AcDbLinetypeTableRecord
  2
CENTERX2
 70
     0
  3
Center (2x) ________  __  ________  __  _____
 72
    65
 73
     4
 40
20.32
 49
12.7
 74
     0
 49
-2.54
 74
     0
 49
2.54
 74
     0
 49
-2.54
 74
     0
  0
LTYPE
  5
72
330
5
100
AcDbSymbolTableRecord
100
AcDbLinetypeTableRecord
  2
DOT2
 70
     0
  3
Dot (.5x) ........................................
 72
    65
 73
     2
 40
0.635
 49
0.0
 74
     0
 49
-0.635
 74
     0
  0
ENDTAB
  0
TABLE
  2
LAYER
  5
2
330
0
100
AcDbSymbolTable
 70
    17
  0
LAYER
  5
10
330
2
100
AcDbSymbolTableRecord
100
AcDbLayerTableRecord
  2
0
 70
     0
 62
     7
  6
Continuous
370
    -3
390
F
  0
LAYER
  5
73
330
2
100
AcDbSymbolTableRecord
100
AcDbLayerTableRecord
  2
FORMAT
 70
     0
 62
     7
  6
Continuous
370
    -3
390
F
  0
LAYER
  5
74
330
2
100
AcDbSymbolTableRecord
100
AcDbLayerTableRecord
  2
YARDIMCI_GEOMETRI
 70
     0
 62
    -6
  6
Continuous
290
     0
370
    -3
390
F
  0
LAYER
  5
75
330
2
100
AcDbSymbolTableRecord
100
AcDbLayerTableRecord
  2
SAYFA_CERCEVESI
 70
     0
 62
     7
  6
Continuous
370
    25
390
F
  0
LAYER
  5
76
330
2
100
AcDbSymbolTableRecord
100
AcDbLayerTableRecord
  2
ANTET
 70
     0
 62
     7
  6
Continuous
370
    -3
390
F
  0
LAYER
  5
77
330
2
100
AcDbSymbolTableRecord
100
AcDbLayerTableRecord
  2
OLCU
 70
     0
 62
   150
  6
Continuous
370
    -3
390
F
  0
LAYER
  5
78
330
2
100
AcDbSymbolTableRecord
100
AcDbLayerTableRecord
  2
METIN
 70
     0
 62
    96
  6
Continuous
370
    -3
390
F
  0
LAYER
  5
79
330
2
100
AcDbSymbolTableRecord
100
AcDbLayerTableRecord
  2
BALON
 70
     0
 62
     5
  6
Continuous
370
    -3
390
F
  0
LAYER
  5
7A
330
2
100
AcDbSymbolTableRecord
100
AcDbLayerTableRecord
  2
VURGU
 70
     0
 62
     7
  6
Continuous
370
    -3
390
F
  0
LAYER
  5
7B
330
2
100
AcDbSymbolTableRecord
100
AcDbLayerTableRecord
  2
SILIK
 70
     0
 62
     7
  6
Continuous
370
    -3
390
F
  0
LAYER
  5
7C
330
2
100
AcDbSymbolTableRecord
100
AcDbLayerTableRecord
  2
MODEL
 70
     0
 62
     7
  6
Continuous
370
    -3
390
F
  0
LAYER
  5
7D
330
2
100
AcDbSymbolTableRecord
100
AcDbLayerTableRecord
  2
DETAYLANDıRMA
 70
     0
 62
   190
  6
Continuous
370
    -3
390
F
  0
LAYER
  5
7E
330
2
100
AcDbSymbolTableRecord
100
AcDbLayerTableRecord
  2
TOLERANS
 70
     0
 62
   230
  6
Continuous
370
    -3
390
F
  0
LAYER
  5
7F
330
2
100
AcDbSymbolTableRecord
100
AcDbLayerTableRecord
  2
MERKEZ_CIZGILERI
 70
     0
 62
    30
  6
Continuous
370
    -3
390
F
  0
LAYER
  5
80
330
2
100
AcDbSymbolTableRecord
100
AcDbLayerTableRecord
  2
KESIT-DETAY_CIZGILERI
 70
     0
 62
     7
  6
Continuous
370
    -3
390
F
  0
LAYER
  5
81
330
2
100
AcDbSymbolTableRecord
100
AcDbLayerTableRecord
  2
\U+041E\U+0421\U+0415\U+0412\U+042B\U+0415
 70
     0
 62
     7
  6
Continuous
370
    -3
390
F
  0
LAYER
  5
82
330
2
100
AcDbSymbolTableRecord
100
AcDbLayerTableRecord
  2
\U+0412\U+041E\U+0414\U+042F\U+041D\U+042B\U+0415_\U+0417\U+041D\U+0410\U+041A\U+0418
 70
     0
 62
    11
  6
Continuous
370
    -3
390
F
  0
ENDTAB
  0
TABLE
  2
STYLE
  5
3
330
0
100
AcDbSymbolTable
 70
     1
  0
STYLE
  5
11
330
3
100
AcDbSymbolTableRecord
100
AcDbTextStyleTableRecord
  2
Standard
 70
     0
 40
0.0
 41
1.0
 50
0.0
 71
     0
 42
3.5
  3
txt
  4

  0
ENDTAB
  0
TABLE
  2
VIEW
  5
6
330
0
100
AcDbSymbolTable
 70
     0
  0
ENDTAB
  0
TABLE
  2
UCS
  5
7
330
0
100
AcDbSymbolTable
 70
     0
  0
ENDTAB
  0
TABLE
  2
APPID
  5
9
330
0
100
AcDbSymbolTable
 70
     1
  0
APPID
  5
12
330
9
100
AcDbSymbolTableRecord
100
AcDbRegAppTableRecord
  2
ACAD
 70
     0
  0
ENDTAB
  0
TABLE
  2
DIMSTYLE
  5
A
330
0
100
AcDbSymbolTable
 70
     1
100
AcDbDimStyleTable
  0
DIMSTYLE
105
27
330
A
100
AcDbSymbolTableRecord
100
AcDbDimStyleTableRecord
  2
ISO-25
 70
     0
 41
2.5
 42
0.625
 43
3.75
 44
1.25
 73
     0
 74
     0
 77
     1
 78
     8
140
2.5
141
2.5
143
0.0393700787
147
0.625
171
     3
172
     1
178
     0
271
     2
272
     2
274
     3
278
    44
283
     0
284
     8
340
11
  0
ENDTAB
  0
TABLE
  2
BLOCK_RECORD
  5
1
330
0
100
AcDbSymbolTable
 70
     3
  0
BLOCK_RECORD
  5
1F
330
1
100
AcDbSymbolTableRecord
100
AcDbBlockTableRecord
  2
*Model_Space
340
22
  0
BLOCK_RECORD
  5
1B
330
1
100
AcDbSymbolTableRecord
100
AcDbBlockTableRecord
  2
*Paper_Space
340
1E
  0
BLOCK_RECORD
  5
23
330
1
100
AcDbSymbolTableRecord
100
AcDbBlockTableRecord
  2
*Paper_Space0
340
26
  0
BLOCK_RECORD
  5
93
330
1
100
AcDbSymbolTableRecord
100
AcDbBlockTableRecord
  2
SW_CENTERMARKSYMBOL_0
340
0
102
{BLKREFS
331
9E
102
}
  0
BLOCK_RECORD
  5
A5
330
1
100
AcDbSymbolTableRecord
100
AcDbBlockTableRecord
  2
SW_CENTERMARKSYMBOL_1
340
0
102
{BLKREFS
331
B0
102
}
  0
ENDTAB
  0
ENDSEC
  0
SECTION
  2
BLOCKS
  0
BLOCK
  5
20
330
1F
100
AcDbEntity
  8
0
100
AcDbBlockBegin
  2
*Model_Space
 70
     0
 10
0.0
 20
0.0
 30
0.0
  3
*Model_Space
  1

  0
ENDBLK
  5
21
330
1F
100
AcDbEntity
  8
0
100
AcDbBlockEnd
  0
BLOCK
  5
1C
330
1B
100
AcDbEntity
 67
     1
  8
0
100
AcDbBlockBegin
  2
*Paper_Space
 70
     0
 10
0.0
 20
0.0
 30
0.0
  3
*Paper_Space
  1

  0
ENDBLK
  5
1D
330
1B
100
AcDbEntity
 67
     1
  8
0
100
AcDbBlockEnd
  0
BLOCK
  5
24
330
23
100
AcDbEntity
  8
0
100
AcDbBlockBegin
  2
*Paper_Space0
 70
     0
 10
0.0
 20
0.0
 30
0.0
  3
*Paper_Space0
  1

  0
ENDBLK
  5
25
330
23
100
AcDbEntity
  8
0
100
AcDbBlockEnd
  0
BLOCK
  5
94
330
93
100
AcDbEntity
  8
0
100
AcDbBlockBegin
  2
SW_CENTERMARKSYMBOL_0
 70
     0
 10
0.0
 20
0.0
 30
0.0
  3
SW_CENTERMARKSYMBOL_0
  1

  0
LINE
  5
96
330
93
100
AcDbEntity
  8
FORMAT
 62
     0
100
AcDbLine
 10
0.0
 20
0.0
 30
0.0
 11
0.0
 21
2.5
 31
0.0
  0
LINE
  5
97
330
93
100
AcDbEntity
  8
FORMAT
 62
     0
100
AcDbLine
 10
0.0
 20
0.0
 30
0.0
 11
-2.5
 21
0.0
 31
0.0
  0
LINE
  5
98
330
93
100
AcDbEntity
  8
FORMAT
 62
     0
100
AcDbLine
 10
0.0
 20
0.0
 30
0.0
 11
0.0
 21
-2.5
 31
0.0
  0
LINE
  5
99
330
93
100
AcDbEntity
  8
FORMAT
 62
     0
100
AcDbLine
 10
0.0
 20
0.0
 30
0.0
 11
2.5
 21
0.0
 31
0.0
  0
LINE
  5
9A
330
93
100
AcDbEntity
  8
FORMAT
 62
     0
100
AcDbLine
 10
0.0
 20
5.0
 30
0.0
 11
0.0
 21
115.0
 31
0.0
  0
LINE
  5
9B
330
93
100
AcDbEntity
  8
FORMAT
 62
     0
100
AcDbLine
 10
-5.0
 20
0.0
 30
0.0
 11
-115.0
 21
0.0
 31
0.0
  0
LINE
  5
9C
330
93
100
AcDbEntity
  8
FORMAT
 62
     0
100
AcDbLine
 10
0.0
 20
-5.0
 30
0.0
 11
0.0
 21
-115.0
 31
0.0
  0
LINE
  5
9D
330
93
100
AcDbEntity
  8
FORMAT
 62
     0
100
AcDbLine
 10
5.0
 20
0.0
 30
0.0
 11
115.0
 21
0.0
 31
0.0
  0
ENDBLK
  5
95
330
93
100
AcDbEntity
  8
0
100
AcDbBlockEnd
  0
BLOCK
  5
A6
330
A5
100
AcDbEntity
  8
0
100
AcDbBlockBegin
  2
SW_CENTERMARKSYMBOL_1
 70
     0
 10
0.0
 20
0.0
 30
0.0
  3
SW_CENTERMARKSYMBOL_1
  1

  0
LINE
  5
A8
330
A5
100
AcDbEntity
  8
FORMAT
 62
     0
100
AcDbLine
 10
0.0
 20
0.0
 30
0.0
 11
0.0
 21
2.5
 31
0.0
  0
LINE
  5
A9
330
A5
100
AcDbEntity
  8
FORMAT
 62
     0
100
AcDbLine
 10
0.0
 20
0.0
 30
0.0
 11
-2.5
 21
0.0
 31
0.0
  0
LINE
  5
AA
330
A5
100
AcDbEntity
  8
FORMAT
 62
     0
100
AcDbLine
 10
0.0
 20
0.0
 30
0.0
 11
0.0
 21
-2.5
 31
0.0
  0
LINE
  5
AB
330
A5
100
AcDbEntity
  8
FORMAT
 62
     0
100
AcDbLine
 10
0.0
 20
0.0
 30
0.0
 11
2.5
 21
0.0
 31
0.0
  0
LINE
  5
AC
330
A5
100
AcDbEntity
  8
FORMAT
 62
     0
100
AcDbLine
 10
0.0
 20
5.0
 30
0.0
 11
0.0
 21
115.0
 31
0.0
  0
LINE
  5
AD
330
A5
100
AcDbEntity
  8
FORMAT
 62
     0
100
AcDbLine
 10
-5.0
 20
0.0
 30
0.0
 11
-115.0
 21
0.0
 31
0.0
  0
LINE
  5
AE
330
A5
100
AcDbEntity
  8
FORMAT
 62
     0
100
AcDbLine
 10
0.0
 20
-5.0
 30
0.0
 11
0.0
 21
-115.0
 31
0.0
  0
LINE
  5
AF
330
A5
100
AcDbEntity
  8
FORMAT
 62
     0
100
AcDbLine
 10
5.0
 20
0.0
 30
0.0
 11
115.0
 21
0.0
 31
0.0
  0
ENDBLK
  5
A7
330
A5
100
AcDbEntity
  8
0
100
AcDbBlockEnd
  0
ENDSEC
  0
SECTION
  2
ENTITIES
  0
LINE
  5
83
330
1F
100
AcDbEntity
  8
0
  6
Continuous
 62
     7
370
    25
100
AcDbLine
 10
24.7238926068
 20
310.2449673146
 30
0.0
 11
24.7238926068
 21
-25.6307375699
 31
0.0
  0
LINE
  5
84
330
1F
100
AcDbEntity
  8
0
  6
Continuous
 62
     7
370
    25
100
AcDbLine
 10
249.7238866463
 20
-25.6307375699
 30
0.0
 11
249.7238866463
 21
310.2449673146
 31
0.0
  0
LINE
  5
85
330
1F
100
AcDbEntity
  8
0
  6
Continuous
 62
     7
370
    25
100
AcDbLine
 10
249.7238866463
 20
310.2449673146
 30
0.0
 11
249.7238866463
 21
449.3692415684
 31
0.0
  0
LINE
  5
86
330
1F
100
AcDbEntity
  8
0
  6
Continuous
 62
     7
370
    25
100
AcDbLine
 10
249.7238866463
 20
-242.6307302982
 30
0.0
 11
249.7238866463
 21
-25.6307375699
 31
0.0
  0
LINE
  5
87
330
1F
100
AcDbEntity
  8
0
  6
Continuous
 62
     7
370
    25
100
AcDbLine
 10
24.7238926068
 20
-25.6307375699
 30
0.0
 11
24.7238926068
 21
-242.6307302982
 31
0.0
  0
LINE
  5
88
330
1F
100
AcDbEntity
  8
0
  6
Continuous
 62
     7
370
    25
100
AcDbLine
 10
24.7238926068
 20
449.3692415684
 30
0.0
 11
24.7238926068
 21
310.2449673146
 31
0.0
  0
LWPOLYLINE
  5
89
330
1F
100
AcDbEntity
  8
0
  6
Continuous
 62
     7
370
    25
100
AcDbPolyline
 90
      102
 70
   128
 43
0.0
 10
137.2238896265
 20
375.2987879246
 10
131.5042828619
 20
375.1729625195
 10
125.8068043217
 20
374.7959631413
 10
120.1534956172
 20
374.1691606969
 10
114.5662307218
 20
373.2951181859
 10
109.066621907
 20
372.1770542592
 10
103.6759480312
 20
370.8194988698
 10
98.4150669947
 20
369.2275184125
 10
93.3043263331
 20
367.407371375
 10
88.3635036126
 20
365.3660315007
 10
83.6117132977
 20
363.1114858121
 10
79.067339696
 20
360.6524365872
 10
74.7479587272
 20
357.99830136
 10
70.6702894941
 20
355.1594513386
 10
66.8500937
 20
352.1468537778
 10
63.3021719232
 20
348.9721315831
 10
60.0402332321
 20
345.6475633115
 10
57.0768989101
 20
342.1860235661
 10
54.4236428514
 20
338.6009233922
 10
52.0907245055
 20
334.9061506718
 10
50.087173976
 20
331.1159509152
 10
48.4207324162
 20
327.2449868649
 10
47.0978520289
 20
323.3082788914
 10
46.1236588135
 20
319.3210261792
 10
45.5019078627
 20
315.2986067265
 10
45.2350131646
 20
311.256696555
 10
45.3240103498
 20
307.210852477
 10
45.7685417905
 20
303.1767505139
 10
46.5669013038
 20
299.1700070828
 10
47.7159968987
 20
295.2060597867
 10
49.2113805786
 20
291.3003462285
 10
51.0472632423
 20
287.4679463834
 10
53.2165519371
 20
283.7236422032
 10
55.7108424082
 20
280.0819176167
 10
58.5204936042
 20
276.5568989247
 10
61.6346351281
 20
273.1622355908
 10
65.0412193909
 20
269.9109810323
 10
68.7270588651
 20
266.8158310384
 10
72.67790059
 20
263.8887065381
 10
76.8784596994
 20
261.1408728093
 10
81.3124827519
 20
258.583058688
 10
85.9628147855
 20
256.2250691384
 10
90.8114663735
 20
254.076113078
 10
95.8396806791
 20
252.1444457501
 10
101.0280005112
 20
250.4375475377
 10
106.3563540056
 20
248.9620643586
 10
111.8041309938
 20
247.7236586541
 10
117.3502500579
 20
246.7271285981
 10
122.9732572511
 20
245.9763484925
 10
128.651396878
 20
245.4741793603
 10
134.3627022989
 20
245.2226477593
 10
140.0850769542
 20
245.2226477593
 10
145.796382375
 20
245.4741793603
 10
151.474522002
 20
245.9763484925
 10
157.0975291952
 20
246.7271285981
 10
162.6436482593
 20
247.7236586541
 10
168.0914252475
 20
248.9620643586
 10
173.4197787419
 20
250.4375475377
 10
178.608098574
 20
252.1444457501
 10
183.6363128796
 20
254.076113078
 10
188.4849644676
 20
256.2250691384
 10
193.1352965012
 20
258.583058688
 10
197.5693195537
 20
261.1408728093
 10
201.7698786631
 20
263.8887065381
 10
205.720720388
 20
266.8158310384
 10
209.4065598622
 20
269.9109810323
 10
212.813144125
 20
273.1622355908
 10
215.9272856489
 20
276.5568989247
 10
218.7369368449
 20
280.0819176167
 10
221.2312273159
 20
283.7236422032
 10
223.4005160108
 20
287.4679463834
 10
225.2363986745
 20
291.3003462285
 10
226.7317823544
 20
295.2060597867
 10
227.8808779493
 20
299.1700070828
 10
228.6792374626
 20
303.1767505139
 10
229.1237689033
 20
307.210852477
 10
229.2127660885
 20
311.256696555
 10
228.9458713904
 20
315.2986067265
 10
228.3241204396
 20
319.3210261792
 10
227.3499272242
 20
323.3082788914
 10
226.0270468369
 20
327.2449868649
 10
224.3606052771
 20
331.1159509152
 10
222.3570547476
 20
334.9061506718
 10
220.0241364017
 20
338.6009233922
 10
217.370880343
 20
342.1860235661
 10
214.407546021
 20
345.6475633115
 10
211.1456073299
 20
348.9721315831
 10
207.5976855531
 20
352.1468537778
 10
203.777489759
 20
355.1594513386
 10
199.6998205259
 20
357.99830136
 10
195.3804395571
 20
360.6524365872
 10
190.8360659554
 20
363.1114858121
 10
186.0842756405
 20
365.3660315007
 10
181.14345292
 20
367.407371375
 10
176.0327122584
 20
369.2275184125
 10
170.7718312219
 20
370.8194988698
 10
165.3811573461
 20
372.1770542592
 10
159.8815485313
 20
373.2951181859
 10
154.2942836359
 20
374.1691606969
 10
148.6409749314
 20
374.7959631413
 10
142.9434963912
 20
375.1729625195
 10
137.2238896265
 20
375.2987879246
  0
LWPOLYLINE
  5
8A
330
1F
100
AcDbEntity
  8
0
  6
Continuous
 62
     7
370
    25
100
AcDbPolyline
 90
      113
 70
   128
 43
0.0
 10
137.2238896265
 20
389.7945183247
 10
130.9159645289
 20
389.6693485707
 10
124.6278859153
 20
389.2943161458
 10
118.3794397339
 20
388.6705535382
 10
112.1902852729
 20
387.8000277013
 10
106.0798946246
 20
386.6854804486
 10
100.0674940124
 20
385.3304284543
 10
94.172002323
 20
383.7391632527
 10
88.4119696393
 20
381.9166320294
 10
82.8055157736
 20
379.8686164349
 10
77.3702799752
 20
377.6014941663
 10
72.1233687773
 20
375.1224773854
 10
67.0812852159
 20
372.4393146962
 10
62.2599027529
 20
369.5604699582
 10
57.6743758693
 20
366.4950030774
 10
53.3391437903
 20
363.2525104016
 10
49.2678485289
 20
359.8433035344
 10
45.4732901826
 20
356.2779921025
 10
41.9674194828
 20
352.5679009885
 10
38.761255838
 20
348.7245934933
 10
35.864894785
 20
344.7602289647
 10
33.2874409333
 20
340.6872647732
 10
31.0370154157
 20
336.5185159177
 10
29.1206888333
 20
332.2670954198
 10
27.5444961563
 20
327.9464143246
 10
26.3133994713
 20
323.5700028867
 10
25.4312656298
 20
319.1516893834
 10
24.9008736983
 20
314.7053616971
 10
24.7238926068
 20
310.2449673146
 10
24.9008736983
 20
305.7846325368
 10
25.4312656298
 20
301.3382452458
 10
26.3133994713
 20
296.9199317425
 10
27.5444961563
 20
292.5435799092
 10
29.1206888333
 20
288.2228392094
 10
31.0370154157
 20
283.9714783162
 10
33.2874409333
 20
279.8027294606
 10
35.864894785
 20
275.7297652692
 10
38.761255838
 20
271.7654007405
 10
41.9674194828
 20
267.9220932454
 10
45.4732901826
 20
264.2119425267
 10
49.2678485289
 20
260.6466906995
 10
53.3391437903
 20
257.2374540299
 10
57.6743758693
 20
253.9949911565
 10
62.2599027529
 20
250.9295242757
 10
67.0812852159
 20
248.0506795377
 10
72.1233687773
 20
245.3675168484
 10
77.3702799752
 20
242.8885000676
 10
82.8055157736
 20
240.6214076012
 10
88.4119696393
 20
238.5733622044
 10
94.172002323
 20
236.7508309811
 10
100.0674940124
 20
235.1595359772
 10
106.0798946246
 20
233.8044839829
 10
112.1902852729
 20
232.6899367303
 10
118.3794397339
 20
231.8194406956
 10
124.6278859153
 20
231.1956780881
 10
130.9159645289
 20
230.8206158608
 10
137.2238896265
 20
230.6954759091
 10
143.5318147242
 20
230.8206158608
 10
149.8198933378
 20
231.1956780881
 10
156.0683395192
 20
231.8194406956
 10
162.2574939802
 20
232.6899367303
 10
168.3678846285
 20
233.8044839829
 10
174.3802852407
 20
235.1595359772
 10
180.2757769301
 20
236.7508309811
 10
186.0358096138
 20
238.5733622044
 10
191.6422634795
 20
240.6214076012
 10
197.0774992779
 20
242.8885000676
 10
202.3244104758
 20
245.3675168484
 10
207.3664940372
 20
248.0506795377
 10
212.1878765002
 20
250.9295242757
 10
216.7734033838
 20
253.9949911565
 10
221.1086354628
 20
257.2374540299
 10
225.1799307242
 20
260.6466906995
 10
228.9744890705
 20
264.2119425267
 10
232.4803597703
 20
267.9220932454
 10
235.6865234151
 20
271.7654007405
 10
238.5828844681
 20
275.7297652692
 10
241.1603383198
 20
279.8027294606
 10
243.4107638374
 20
283.9714783162
 10
245.3270904198
 20
288.2228392094
 10
246.9032830968
 20
292.5435799092
 10
248.1343797818
 20
296.9199317425
 10
249.0165136233
 20
301.3382452458
 10
249.5469055548
 20
305.7846325368
 10
249.7238866463
 20
310.2449673146
 10
249.5469055548
 20
314.7053616971
 10
249.0165136233
 20
319.1516893834
 10
248.1343797818
 20
323.5700028867
 10
246.9032830968
 20
327.9464143246
 10
245.3270904198
 20
332.2670954198
 10
243.4107638374
 20
336.5185159177
 10
241.1603383198
 20
340.6872647732
 10
238.5828844681
 20
344.7602289647
 10
235.6865234151
 20
348.7245934933
 10
232.4803597703
 20
352.5679009885
 10
228.9744890705
 20
356.2779921025
 10
225.1799307242
 20
359.8433035344
 10
221.1086354628
 20
363.2525104016
 10
216.7734033838
 20
366.4950030774
 10
212.1878765002
 20
369.5604699582
 10
207.3664940372
 20
372.4393146962
 10
202.3244104758
 20
375.1224773854
 10
197.0774992779
 20
377.6014941663
 10
191.6422634795
 20
379.8686164349
 10
186.0358096138
 20
381.9166320294
 10
180.2757769301
 20
383.7391632527
 10
174.3802852407
 20
385.3304284543
 10
168.3678846285
 20
386.6854804486
 10
162.2574939802
 20
387.8000277013
 10
156.0683395192
 20
388.6705535382
 10
149.8198933378
 20
389.2943161458
 10
143.5318147242
 20
389.6693485707
 10
137.2238896265
 20
389.7945183247
  0
ELLIPSE
  5
8B
330
1F
100
AcDbEntity
  8
0
  6
Continuous
 62
     7
370
    25
100
AcDbEllipse
 10
137.2238896265
 20
-25.6307302982
 30
0.0
 11
112.5
 21
0.0
 31
0.0
210
0.0
220
0.0
230
1.0
 40
0.4142135624
 41
3.141592653589793
 42
6.283185307179586
  0
LINE
  5
8C
330
1F
100
AcDbEntity
  8
0
  6
Continuous
 62
     7
370
    25
100
AcDbLine
 10
24.7238926068
 20
-242.6307302982
 30
0.0
 11
249.7238866463
 21
-242.6307302982
 31
0.0
  0
LINE
  5
8D
330
1F
100
AcDbEntity
  8
0
  6
Continuous
 62
     7
370
    25
100
AcDbLine
 10
24.7238926068
 20
449.3692415684
 30
0.0
 11
249.7238866463
 21
449.3692415684
 31
0.0
  0
LINE
  5
8E
330
1F
100
AcDbEntity
  8
0
  6
Continuous
 62
     7
370
    25
100
AcDbLine
 10
24.7238926068
 20
-592.6047262829
 30
0.0
 11
24.7238926068
 21
-928.4804460686
 31
0.0
  0
LINE
  5
8F
330
1F
100
AcDbEntity
  8
0
  6
Continuous
 62
     7
370
    25
100
AcDbLine
 10
249.7238866463
 20
-928.4804460686
 30
0.0
 11
249.7238866463
 21
-592.6047262829
 31
0.0
  0
CIRCLE
  5
90
330
1F
100
AcDbEntity
  8
0
  6
Continuous
 62
     7
370
    25
100
AcDbCircle
 10
137.2238896265
 20
-928.4804460686
 30
0.0
 40
92.0
  0
CIRCLE
  5
91
330
1F
100
AcDbEntity
  8
0
  6
Continuous
 62
     7
370
    25
100
AcDbCircle
 10
137.2238896265
 20
-928.4804460686
 30
0.0
 40
112.5
  0
LWPOLYLINE
  5
92
330
1F
100
AcDbEntity
  8
0
  6
Continuous
 62
     7
370
    25
100
AcDbPolyline
 90
       57
 70
   128
 43
0.0
 10
24.7238926068
 20
-592.6047262829
 10
24.9008736983
 20
-588.1443617028
 10
25.4312656298
 20
-583.6980042141
 10
26.3133994713
 20
-579.2796907109
 10
27.5444961563
 20
-574.9032792729
 10
29.1206888333
 20
-570.5825981778
 10
31.0370154157
 20
-566.3311776799
 10
33.2874409333
 20
-562.1624586266
 10
35.864894785
 20
-558.0894944352
 10
38.761255838
 20
-554.1251299065
 10
41.9674194828
 20
-550.2818224114
 10
45.4732901826
 20
-546.571701495
 10
49.2678485289
 20
-543.0064198655
 10
53.3391437903
 20
-539.5971831959
 10
57.6743758693
 20
-536.3547203225
 10
62.2599027529
 20
-533.2892534417
 10
67.0812852159
 20
-530.4104087037
 10
72.1233687773
 20
-527.7272460145
 10
77.3702799752
 20
-525.2482292336
 10
82.8055157736
 20
-522.9811367672
 10
88.4119696393
 20
-520.9330913704
 10
94.172002323
 20
-519.1105601471
 10
100.0674940124
 20
-517.5192651433
 10
106.0798946246
 20
-516.1642131489
 10
112.1902852729
 20
-515.0496956986
 10
118.3794397339
 20
-514.1791698617
 10
124.6278859153
 20
-513.5554072541
 10
130.9159645289
 20
-513.1803450268
 10
137.2238896265
 20
-513.0552050751
 10
143.5318147242
 20
-513.1803450268
 10
149.8198933378
 20
-513.5554072541
 10
156.0683395192
 20
-514.1791698617
 10
162.2574939802
 20
-515.0496956986
 10
168.3678846285
 20
-516.1642131489
 10
174.3802852407
 20
-517.5192651433
 10
180.2757769301
 20
-519.1105601471
 10
186.0358096138
 20
-520.9330913704
 10
191.6422634795
 20
-522.9811367672
 10
197.0774992779
 20
-525.2482292336
 10
202.3244104758
 20
-527.7272460145
 10
207.3664940372
 20
-530.4104087037
 10
212.1878765002
 20
-533.2892534417
 10
216.7734033838
 20
-536.3547203225
 10
221.1086354628
 20
-539.5971831959
 10
225.1799307242
 20
-543.0064198655
 10
228.9744890705
 20
-546.571701495
 10
232.4803597703
 20
-550.2818224114
 10
235.6865234151
 20
-554.1251299065
 10
238.5828844681
 20
-558.0894944352
 10
241.1603383198
 20
-562.1624586266
 10
243.4107638374
 20
-566.3311776799
 10
245.3270904198
 20
-570.5825981778
 10
246.9032830968
 20
-574.9032792729
 10
248.1343797818
 20
-579.2796907109
 10
249.0165136233
 20
-583.6980042141
 10
249.5469055548
 20
-588.1443617028
 10
249.7238866463
 20
-592.6047262829
  0
INSERT
  5
9E
330
1F
100
AcDbEntity
  8
FORMAT
100
AcDbBlockReference
  2
SW_CENTERMARKSYMBOL_0
 10
137.2238896265
 20
-928.4804460686
 30
0.0
  0
LINE
  5
9F
330
1F
100
AcDbEntity
  8
0
  6
Continuous
 62
     7
370
    25
100
AcDbLine
 10
249.7238866463
 20
812.4989366212
 30
0.0
 11
249.7238866463
 21
1148.3746564069
 31
0.0
  0
LINE
  5
A0
330
1F
100
AcDbEntity
  8
0
  6
Continuous
 62
     7
370
    25
100
AcDbLine
 10
24.7238926068
 20
1148.3746564069
 30
0.0
 11
24.7238926068
 21
812.4989366212
 31
0.0
  0
CIRCLE
  5
A1
330
1F
100
AcDbEntity
  8
0
  6
Continuous
 62
     7
370
    25
100
AcDbCircle
 10
137.2238896265
 20
1148.3746564069
 30
0.0
 40
92.0
  0
CIRCLE
  5
A2
330
1F
100
AcDbEntity
  8
0
  6
Continuous
 62
     7
370
    25
100
AcDbCircle
 10
137.2238896265
 20
1148.3746564069
 30
0.0
 40
112.5
  0
LWPOLYLINE
  5
A3
330
1F
100
AcDbEntity
  8
0
  6
Continuous
 62
     7
370
    25
100
AcDbPolyline
 90
      113
 70
   128
 43
0.0
 10
137.2238896265
 20
892.048457829
 10
130.9159645289
 20
891.923288075
 10
124.6278859153
 20
891.5482556501
 10
118.3794397339
 20
890.9244930425
 10
112.1902852729
 20
890.0539672055
 10
106.0798946246
 20
888.9394497552
 10
100.0674940124
 20
887.5843977609
 10
94.172002323
 20
885.993102757
 10
88.4119696393
 20
884.1705715337
 10
82.8055157736
 20
882.1225261369
 10
77.3702799752
 20
879.8554336705
 10
72.1233687773
 20
877.3764168897
 10
67.0812852159
 20
874.6932542005
 10
62.2599027529
 20
871.8144094625
 10
57.6743758693
 20
868.7489425817
 10
53.3391437903
 20
865.5064797082
 10
49.2678485289
 20
862.0972430387
 10
45.4732901826
 20
858.5319614091
 10
41.9674194828
 20
854.8218404927
 10
38.761255838
 20
850.9785329976
 10
35.864894785
 20
847.014168469
 10
33.2874409333
 20
842.9412042775
 10
31.0370154157
 20
838.7724852243
 10
29.1206888333
 20
834.5210647264
 10
27.5444961563
 20
830.2003538289
 10
26.3133994713
 20
825.8239721933
 10
25.4312656298
 20
821.40565869
 10
24.9008736983
 20
816.9593012014
 10
24.7238926068
 20
812.4989366212
 10
24.9008736983
 20
808.0385720411
 10
25.4312656298
 20
803.5922145524
 10
26.3133994713
 20
799.1739010492
 10
27.5444961563
 20
794.7974896112
 10
29.1206888333
 20
790.476808516
 10
31.0370154157
 20
786.2253880181
 10
33.2874409333
 20
782.0566689649
 10
35.864894785
 20
777.9837047734
 10
38.761255838
 20
774.0193402448
 10
41.9674194828
 20
770.1760327497
 10
45.4732901826
 20
766.4659118333
 10
49.2678485289
 20
762.9006302037
 10
53.3391437903
 20
759.4913935342
 10
57.6743758693
 20
756.2489306607
 10
62.2599027529
 20
753.1834637799
 10
67.0812852159
 20
750.3046190419
 10
72.1233687773
 20
747.6214563527
 10
77.3702799752
 20
745.1424395719
 10
82.8055157736
 20
742.8753471055
 10
88.4119696393
 20
740.8273017087
 10
94.172002323
 20
739.0047704854
 10
100.0674940124
 20
737.4134754815
 10
106.0798946246
 20
736.0584234872
 10
112.1902852729
 20
734.9439060369
 10
118.3794397339
 20
734.0733801999
 10
124.6278859153
 20
733.4496175924
 10
130.9159645289
 20
733.0745553651
 10
137.2238896265
 20
732.9494154134
 10
143.5318147242
 20
733.0745553651
 10
149.8198933378
 20
733.4496175924
 10
156.0683395192
 20
734.0733801999
 10
162.2574939802
 20
734.9439060369
 10
168.3678846285
 20
736.0584234872
 10
174.3802852407
 20
737.4134754815
 10
180.2757769301
 20
739.0047704854
 10
186.0358096138
 20
740.8273017087
 10
191.6422634795
 20
742.8753471055
 10
197.0774992779
 20
745.1424395719
 10
202.3244104758
 20
747.6214563527
 10
207.3664940372
 20
750.3046190419
 10
212.1878765002
 20
753.1834637799
 10
216.7734033838
 20
756.2489306607
 10
221.1086354628
 20
759.4913935342
 10
225.1799307242
 20
762.9006302037
 10
228.9744890705
 20
766.4659118333
 10
232.4803597703
 20
770.1760327497
 10
235.6865234151
 20
774.0193402448
 10
238.5828844681
 20
777.9837047734
 10
241.1603383198
 20
782.0566689649
 10
243.4107638374
 20
786.2253880181
 10
245.3270904198
 20
790.476808516
 10
246.9032830968
 20
794.7974896112
 10
248.1343797818
 20
799.1739010492
 10
249.0165136233
 20
803.5922145524
 10
249.5469055548
 20
808.0385720411
 10
249.7238866463
 20
812.4989366212
 10
249.5469055548
 20
816.9593012014
 10
249.0165136233
 20
821.40565869
 10
248.1343797818
 20
825.8239721933
 10
246.9032830968
 20
830.2003538289
 10
245.3270904198
 20
834.5210647264
 10
243.4107638374
 20
838.7724852243
 10
241.1603383198
 20
842.9412042775
 10
238.5828844681
 20
847.014168469
 10
235.6865234151
 20
850.9785329976
 10
232.4803597703
 20
854.8218404927
 10
228.9744890705
 20
858.5319614091
 10
225.1799307242
 20
862.0972430387
 10
221.1086354628
 20
865.5064797082
 10
216.7734033838
 20
868.7489425817
 10
212.1878765002
 20
871.8144094625
 10
207.3664940372
 20
874.6932542005
 10
202.3244104758
 20
877.3764168897
 10
197.0774992779
 20
879.8554336705
 10
191.6422634795
 20
882.1225261369
 10
186.0358096138
 20
884.1705715337
 10
180.2757769301
 20
885.993102757
 10
174.3802852407
 20
887.5843977609
 10
168.3678846285
 20
888.9394497552
 10
162.2574939802
 20
890.0539672055
 10
156.0683395192
 20
890.9244930425
 10
149.8198933378
 20
891.5482556501
 10
143.5318147242
 20
891.923288075
 10
137.2238896265
 20
892.048457829
  0
LWPOLYLINE
  5
A4
330
1F
100
AcDbEntity
  8
0
  6
Continuous
 62
     7
370
    25
100
AcDbPolyline
 90
      102
 70
   128
 43
0.0
 10
137.2238896265
 20
877.5527572313
 10
131.5042828619
 20
877.4269318261
 10
125.8068043217
 20
877.0498728433
 10
120.1534956172
 20
876.4231300035
 10
114.5662307218
 20
875.5490278878
 10
109.066621907
 20
874.4310235658
 10
103.6759480312
 20
873.0734085717
 10
98.4150669947
 20
871.4814579168
 10
93.3043263331
 20
869.6613108792
 10
88.3635036126
 20
867.6200008073
 10
83.6117132977
 20
865.3654253164
 10
79.067339696
 20
862.9063462892
 10
74.7479587272
 20
860.2522408643
 10
70.6702894941
 20
857.4133908429
 10
66.8500937
 20
854.400793282
 10
63.3021719232
 20
851.2260412851
 10
60.0402332321
 20
847.9015028157
 10
57.0768989101
 20
844.4399630704
 10
54.4236428514
 20
840.8548926988
 10
52.0907245055
 20
837.1600901761
 10
50.087173976
 20
833.3698904195
 10
48.4207324162
 20
829.4989263692
 10
47.0978520289
 20
825.5621885934
 10
46.1236588135
 20
821.5749358812
 10
45.5019078627
 20
817.5525760331
 10
45.2350131646
 20
813.5106360593
 10
45.3240103498
 20
809.4647919812
 10
45.7685417905
 20
805.4306900182
 10
46.5669013038
 20
801.4239465871
 10
47.7159968987
 20
797.4600290933
 10
49.2113805786
 20
793.5543155351
 10
51.0472632423
 20
789.7218560853
 10
53.2165519371
 20
785.9775519052
 10
55.7108424082
 20
782.335857121
 10
58.5204936042
 20
778.810838429
 10
61.6346351281
 20
775.4161452928
 10
65.0412193909
 20
772.1649503389
 10
68.7270588651
 20
769.0697705426
 10
72.67790059
 20
766.14261624
 10
76.8784596994
 20
763.3948123136
 10
81.3124827519
 20
760.8369981923
 10
85.9628147855
 20
758.4790086427
 10
90.8114663735
 20
756.3300525823
 10
95.8396806791
 20
754.3983852544
 10
101.0280005112
 20
752.6915168443
 10
106.3563540056
 20
751.2160038629
 10
111.8041309938
 20
749.9775981584
 10
117.3502500579
 20
748.9810681024
 10
122.9732572511
 20
748.2302879968
 10
128.651396878
 20
747.7281486669
 10
134.3627022989
 20
747.4765872636
 10
140.0850769542
 20
747.4765872636
 10
145.796382375
 20
747.7281486669
 10
151.474522002
 20
748.2302879968
 10
157.0975291952
 20
748.9810681024
 10
162.6436482593
 20
749.9775981584
 10
168.0914252475
 20
751.2160038629
 10
173.4197787419
 20
752.6915168443
 10
178.608098574
 20
754.3983852544
 10
183.6363128796
 20
756.3300525823
 10
188.4849644676
 20
758.4790086427
 10
193.1352965012
 20
760.8369981923
 10
197.5693195537
 20
763.3948123136
 10
201.7698786631
 20
766.14261624
 10
205.720720388
 20
769.0697705426
 10
209.4065598622
 20
772.1649503389
 10
212.813144125
 20
775.4161452928
 10
215.9272856489
 20
778.810838429
 10
218.7369368449
 20
782.335857121
 10
221.2312273159
 20
785.9775519052
 10
223.4005160108
 20
789.7218560853
 10
225.2363986745
 20
793.5543155351
 10
226.7317823544
 20
797.4600290933
 10
227.8808779493
 20
801.4239465871
 10
228.6792374626
 20
805.4306900182
 10
229.1237689033
 20
809.4647919812
 10
229.2127660885
 20
813.5106360593
 10
228.9458713904
 20
817.5525760331
 10
228.3241204396
 20
821.5749358812
 10
227.3499272242
 20
825.5621885934
 10
226.0270468369
 20
829.4989263692
 10
224.3606052771
 20
833.3698904195
 10
222.3570547476
 20
837.1600901761
 10
220.0241364017
 20
840.8548926988
 10
217.370880343
 20
844.4399630704
 10
214.407546021
 20
847.9015028157
 10
211.1456073299
 20
851.2260412851
 10
207.5976855531
 20
854.400793282
 10
203.777489759
 20
857.4133908429
 10
199.6998205259
 20
860.2522408643
 10
195.3804395571
 20
862.9063462892
 10
190.8360659554
 20
865.3654253164
 10
186.0842756405
 20
867.6200008073
 10
181.14345292
 20
869.6613108792
 10
176.0327122584
 20
871.4814579168
 10
170.7718312219
 20
873.0734085717
 10
165.3811573461
 20
874.4310235658
 10
159.8815485313
 20
875.5490278878
 10
154.2942836359
 20
876.4231300035
 10
148.6409749314
 20
877.0498728433
 10
142.9434963912
 20
877.4269318261
 10
137.2238896265
 20
877.5527572313
  0
INSERT
  5
B0
330
1F
100
AcDbEntity
  8
FORMAT
100
AcDbBlockReference
  2
SW_CENTERMARKSYMBOL_1
 10
137.2238896265
 20
1148.3746564069
 30
0.0
  0
LINE
  5
B1
330
1F
100
AcDbEntity
  8
0
  6
Continuous
 62
     7
370
    25
100
AcDbLine
 10
891.5979692393
 20
389.7945183247
 30
0.0
 11
747.7717676811
 21
245.9683018655
 31
0.0
  0
LINE
  5
B2
330
1F
100
AcDbEntity
  8
0
  6
Continuous
 62
     7
370
    25
100
AcDbLine
 10
747.7717676811
 20
-72.2297531635
 30
0.0
 11
1050.6970116549
 21
230.6954759091
 31
0.0
  0
LINE
  5
B3
330
1F
100
AcDbEntity
  8
0
  6
Continuous
 62
     7
370
    25
100
AcDbLine
 10
747.7717676811
 20
245.9683018655
 30
0.0
 11
747.7717676811
 21
449.3692415684
 31
0.0
  0
LINE
  5
B4
330
1F
100
AcDbEntity
  8
0
  6
Continuous
 62
     7
370
    25
100
AcDbLine
 10
747.7717676811
 20
-242.6307302982
 30
0.0
 11
747.7717676811
 21
-72.2297531635
 31
0.0
  0
LINE
  5
B5
330
1F
100
AcDbEntity
  8
0
  6
Continuous
 62
     7
370
    25
100
AcDbLine
 10
522.7717736416
 20
449.3692415684
 30
0.0
 11
522.7717736416
 21
-242.6307302982
 31
0.0
  0
LWPOLYLINE
  5
B6
330
1F
100
AcDbEntity
  8
0
  6
Continuous
 62
     7
370
    25
100
AcDbPolyline
 90
       30
 70
   128
 43
0.0
 10
747.7717676811
 20
-72.2297531635
 10
747.6067820244
 20
-72.1614164382
 10
747.1122944408
 20
-71.9565850765
 10
746.2897577934
 20
-71.6158849269
 10
745.1415860706
 20
-71.1402994663
 10
743.6711469345
 20
-70.5312145025
 10
741.8827542715
 20
-69.7904479772
 10
739.7816532903
 20
-68.9201456577
 10
737.374005621
 20
-67.9228556424
 10
734.666874414
 20
-66.8015283614
 10
731.6682019882
 20
-65.5594420701
 10
728.3867800288
 20
-64.2002326518
 10
724.8322421365
 20
-62.7278936178
 10
721.0150042229
 20
-61.1467463046
 10
716.9462645106
 20
-59.4614100724
 10
712.6379588299
 20
-57.676861909
 10
708.1027308159
 20
-55.7983023196
 10
703.3538723045
 20
-53.8312596351
 10
698.4053158813
 20
-51.7815006047
 10
693.2715790026
 20
-49.6550303966
 10
687.9677192919
 20
-47.4581074983
 10
682.5092935615
 20
-45.1971543103
 10
676.9123131089
 20
-42.8788018495
 10
671.1931915634
 20
-40.5098748475
 10
665.368709495
 20
-38.0972874433
 10
659.4559454971
 20
-35.6481474906
 10
653.4722445213
 20
-33.1696075469
 10
647.4351601355
 20
-30.6689691812
 10
641.3623977133
 20
-28.1535488635
 10
635.2717706614
 20
-25.6307375699
  0
LWPOLYLINE
  5
B7
330
1F
100
AcDbEntity
  8
0
  6
Continuous
 62
     7
370
    25
100
AcDbPolyline
 90
       47
 70
   128
 43
0.0
 10
635.2717706614
 20
-25.6307375699
 10
639.1548363172
 20
-16.2561786443
 10
643.0332742312
 20
-6.8927955896
 10
646.9024631806
 20
2.4482506245
 10
650.7577912562
 20
11.7558437318
 10
654.5946633123
 20
21.0188525647
 10
658.4085093491
 20
30.2263098687
 10
662.1947826498
 20
39.3671589822
 10
665.9489718877
 20
48.4305816621
 10
669.6666011267
 20
57.405729863
 10
673.3432428591
 20
66.2819343537
 10
676.9745142811
 20
75.0485855073
 10
680.5560866051
 20
83.6952823132
 10
684.0836906486
 20
92.2116833657
 10
687.5531280093
 20
100.5876260728
 10
690.9602598899
 20
108.8131862611
 10
694.3010257237
 20
116.8784993619
 10
697.5714469009
 20
124.7739988297
 10
700.7676193171
 20
132.4902373284
 10
703.8857469015
 20
140.018065545
 10
706.9221043639
 20
147.348483178
 10
709.8730707221
 20
154.4727283448
 10
712.7351367526
 20
161.3823669881
 10
715.5048826389
 20
168.0691438645
 10
718.1790152245
 20
174.5250719517
 10
720.7543531113
 20
180.7424622506
 10
723.227811759
 20
186.7139237851
 10
725.5964556389
 20
192.4323338002
 10
727.8574535303
 20
197.8908973664
 10
730.0081232243
 20
203.0830579728
 10
732.0458868199
 20
208.0026465386
 10
733.9683228784
 20
212.6438218087
 10
735.7731440716
 20
217.0010405511
 10
737.4581897311
 20
221.0691171616
 10
739.0214631014
 20
224.8431938618
 10
740.4611015372
 20
228.318770501
 10
741.775376504
 20
231.4917045563
 10
742.9627308302
 20
234.3582409352
 10
744.0217414551
 20
236.9149225682
 10
744.9511641317
 20
239.1587394208
 10
745.7498738222
 20
241.0870092839
 10
746.4169243031
 20
242.6974075764
 10
746.9515183621
 20
243.9880269498
 10
747.3530226998
 20
244.9573474854
 10
747.6209604793
 20
245.6042068928
 10
747.7550113254
 20
245.9278303117
 10
747.7717676811
 20
245.9683018655
  0
LWPOLYLINE
  5
B8
330
1F
100
AcDbEntity
  8
0
  6
Continuous
 62
     7
370
    25
100
AcDbPolyline
 90
       58
 70
   128
 43
0.0
 10
891.5979692393
 20
389.7945183247
 10
891.7231389933
 20
389.6693485707
 10
892.0981714182
 20
389.2943161458
 10
892.7219340258
 20
388.6705535382
 10
893.5924598627
 20
387.8000277013
 10
894.7069773131
 20
386.6854804486
 10
896.0620293074
 20
385.3304284543
 10
897.6533243113
 20
383.7391632527
 10
899.4758555346
 20
381.9166320294
 10
901.5239009314
 20
379.8686164349
 10
903.7909933977
 20
377.6014941663
 10
906.2700101786
 20
375.1224773854
 10
908.9531728678
 20
372.4393146962
 10
911.8320176058
 20
369.5604699582
 10
914.8974844866
 20
366.4950030774
 10
918.1399473601
 20
363.2525104016
 10
921.5491840296
 20
359.8433035344
 10
925.1144656592
 20
356.2779921025
 10
928.8245865755
 20
352.5679009885
 10
932.6678940706
 20
348.7245934933
 10
936.6322585993
 20
344.7602289647
 10
940.7052227907
 20
340.6872647732
 10
944.873941844
 20
336.5185159177
 10
949.1253623419
 20
332.2670954198
 10
953.4460732393
 20
327.9464143246
 10
957.822454875
 20
323.5700028867
 10
962.2407683783
 20
319.1516893834
 10
966.6871258669
 20
314.7053616971
 10
971.1474904471
 20
310.2449673146
 10
975.6078550272
 20
305.7846325368
 10
980.0542125158
 20
301.3382452458
 10
984.4725260191
 20
296.9199317425
 10
988.8489374571
 20
292.5435799092
 10
993.1696185522
 20
288.2228392094
 10
997.4210390501
 20
283.9714783162
 10
1001.5897581034
 20
279.8027294606
 10
1005.6627222948
 20
275.7297652692
 10
1009.6270868235
 20
271.7654007405
 10
1013.4703943186
 20
267.9220932454
 10
1017.180515235
 20
264.2119425267
 10
1020.7457968645
 20
260.6466906995
 10
1024.1550335341
 20
257.2374540299
 10
1027.3974964075
 20
253.9949911565
 10
1030.4629632883
 20
250.9295242757
 10
1033.3418080263
 20
248.0506795377
 10
1036.0249707155
 20
245.3675168484
 10
1038.5039874964
 20
242.8885000676
 10
1040.7710799627
 20
240.6214076012
 10
1042.8191253596
 20
238.5733622044
 10
1044.6416565828
 20
236.7508309811
 10
1046.2329515867
 20
235.1595359772
 10
1047.5880035811
 20
233.8044839829
 10
1048.7025210314
 20
232.6899367303
 10
1049.5730468683
 20
231.8194406956
 10
1050.1968094759
 20
231.1956780881
 10
1050.5718717032
 20
230.8206158608
 10
1050.6970116549
 20
230.6954759091
 10
1050.6970116549
 20
230.6954759091
  0
LINE
  5
B9
330
1F
100
AcDbEntity
  8
0
  6
Continuous
 62
     7
370
    25
100
AcDbLine
 10
635.2717706614
 20
-242.6307302982
 30
0.0
 11
747.7717676811
 21
-242.6307302982
 31
0.0
  0
LINE
  5
BA
330
1F
100
AcDbEntity
  8
0
  6
Continuous
 62
     7
370
    25
100
AcDbLine
 10
522.7717736416
 20
-242.6307302982
 30
0.0
 11
635.2717706614
 21
-242.6307302982
 31
0.0
  0
LINE
  5
BB
330
1F
100
AcDbEntity
  8
0
  6
Continuous
 62
     7
370
    25
100
AcDbLine
 10
635.2717706614
 20
449.3692415684
 30
0.0
 11
747.7717676811
 21
449.3692415684
 31
0.0
  0
LINE
  5
BC
330
1F
100
AcDbEntity
  8
0
  6
Continuous
 62
     7
370
    25
100
AcDbLine
 10
522.7717736416
 20
449.3692415684
 30
0.0
 11
635.2717706614
 21
449.3692415684
 31
0.0
  0
LINE
  5
BD
330
1F
100
AcDbEntity
  8
0
  6
Continuous
 62
     7
370
    25
100
AcDbLine
 10
-345.3268461628
 20
-242.6307302982
 30
0.0
 11
-345.3268461628
 21
449.3692415684
 31
0.0
  0
LINE
  5
BE
330
1F
100
AcDbEntity
  8
0
  6
Continuous
 62
     7
370
    25
100
AcDbLine
 10
-570.3268402023
 20
-72.2297531635
 30
0.0
 11
-570.3268402023
 21
-242.6307302982
 31
0.0
  0
LINE
  5
BF
330
1F
100
AcDbEntity
  8
0
  6
Continuous
 62
     7
370
    25
100
AcDbLine
 10
-570.3268402023
 20
449.3692415684
 30
0.0
 11
-570.3268402023
 21
245.9683018655
 31
0.0
  0
LINE
  5
C0
330
1F
100
AcDbEntity
  8
0
  6
Continuous
 62
     7
370
    25
100
AcDbLine
 10
-873.2520841761
 20
230.6954759091
 30
0.0
 11
-570.3268402023
 21
-72.2297531635
 31
0.0
  0
LINE
  5
C1
330
1F
100
AcDbEntity
  8
0
  6
Continuous
 62
     7
370
    25
100
AcDbLine
 10
-570.3268402023
 20
245.9683018655
 30
0.0
 11
-714.1530417605
 21
389.7945183247
 31
0.0
  0
LINE
  5
C2
330
1F
100
AcDbEntity
  8
0
  6
Continuous
 62
     7
370
    25
100
AcDbLine
 10
-570.3268402023
 20
-242.6307302982
 30
0.0
 11
-345.3268461628
 21
-242.6307302982
 31
0.0
  0
LINE
  5
C3
330
1F
100
AcDbEntity
  8
0
  6
Continuous
 62
     7
370
    25
100
AcDbLine
 10
-570.3268402023
 20
449.3692415684
 30
0.0
 11
-345.3268461628
 21
449.3692415684
 31
0.0
  0
LWPOLYLINE
  5
C4
330
1F
100
AcDbEntity
  8
0
  6
Continuous
 62
     7
370
    25
100
AcDbPolyline
 90
       47
 70
   128
 43
0.0
 10
-570.3268402023
 20
245.9683018655
 10
-570.3100838466
 20
245.9278303117
 10
-570.1760330005
 20
245.6042068928
 10
-569.9080952211
 20
244.9573474854
 10
-569.5065908833
 20
243.9880269498
 10
-568.9719968243
 20
242.6974075764
 10
-568.3049463434
 20
241.0870092839
 10
-567.5062366529
 20
239.1587394208
 10
-566.5768139763
 20
236.9149225682
 10
-565.5178033514
 20
234.3582409352
 10
-564.3304490252
 20
231.4917045563
 10
-563.0161740584
 20
228.318770501
 10
-561.5765356226
 20
224.8431938618
 10
-560.0132622523
 20
221.0691171616
 10
-558.3282165928
 20
217.0010405511
 10
-556.5233953996
 20
212.6438218087
 10
-554.6009593411
 20
208.0026465386
 10
-552.5631957455
 20
203.0830579728
 10
-550.4125260515
 20
197.8908973664
 10
-548.1515281601
 20
192.4323338002
 10
-545.7828842802
 20
186.7139237851
 10
-543.3094256325
 20
180.7424622506
 10
-540.7340877457
 20
174.5250719517
 10
-538.0599551601
 20
168.0691438645
 10
-535.2902092738
 20
161.3823669881
 10
-532.4281432433
 20
154.4727283448
 10
-529.4771768851
 20
147.348483178
 10
-526.4408194227
 20
140.018065545
 10
-523.3226918383
 20
132.4902373284
 10
-520.1265194221
 20
124.7739988297
 10
-516.8560982449
 20
116.8784993619
 10
-513.5153324111
 20
108.8131862611
 10
-510.1082005305
 20
100.5876260728
 10
-506.6387631698
 20
92.2116833657
 10
-503.1111591263
 20
83.6952823132
 10
-499.5295868023
 20
75.0485855073
 10
-495.8983153803
 20
66.2819343537
 10
-492.2216736479
 20
57.405729863
 10
-488.5040444089
 20
48.4305816621
 10
-484.749855171
 20
39.3671589822
 10
-480.9635818703
 20
30.2263098687
 10
-477.1497358335
 20
21.0188525647
 10
-473.3128637774
 20
11.7558437318
 10
-469.4575357018
 20
2.4482506245
 10
-465.5883467524
 20
-6.8927955896
 10
-461.7099088384
 20
-16.2561786443
 10
-457.8268431826
 20
-25.6307375699
  0
LWPOLYLINE
  5
C5
330
1F
100
AcDbEntity
  8
0
  6
Continuous
 62
     7
370
    25
100
AcDbPolyline
 90
       30
 70
   128
 43
0.0
 10
-457.8268431826
 20
-25.6307375699
 10
-463.9174702345
 20
-28.1535488635
 10
-469.9902326567
 20
-30.6689691812
 10
-476.0273170425
 20
-33.1696075469
 10
-482.0110180183
 20
-35.6481474906
 10
-487.9237820162
 20
-38.0972874433
 10
-493.7482640846
 20
-40.5098748475
 10
-499.4673856301
 20
-42.8788018495
 10
-505.0643660827
 20
-45.1971543103
 10
-510.5227918131
 20
-47.4581074983
 10
-515.8266515238
 20
-49.6550303966
 10
-520.9603884025
 20
-51.7815006047
 10
-525.9089448257
 20
-53.8312596351
 10
-530.6578033371
 20
-55.7983023196
 10
-535.1930313511
 20
-57.676861909
 10
-539.5013370319
 20
-59.4614100724
 10
-543.5700767441
 20
-61.1467463046
 10
-547.3873146577
 20
-62.7278936178
 10
-550.94185255
 20
-64.2002326518
 10
-554.2232745094
 20
-65.5594420701
 10
-557.2219469352
 20
-66.8015283614
 10
-559.9290781422
 20
-67.9228556424
 10
-562.3367258115
 20
-68.9201456577
 10
-564.4378267927
 20
-69.7904479772
 10
-566.2262194557
 20
-70.5312145025
 10
-567.6966585918
 20
-71.1402994663
 10
-568.8448303146
 20
-71.6158849269
 10
-569.667366962
 20
-71.9565850765
 10
-570.1618545456
 20
-72.1614164382
 10
-570.3268402023
 20
-72.2297531635
  0
LWPOLYLINE
  5
C6
330
1F
100
AcDbEntity
  8
0
  6
Continuous
 62
     7
370
    25
100
AcDbPolyline
 90
       58
 70
   128
 43
0.0
 10
-873.2520841761
 20
230.6954759091
 10
-873.1269442244
 20
230.8206158608
 10
-872.7518819971
 20
231.1956780881
 10
-872.1281193895
 20
231.8194406956
 10
-871.2575935526
 20
232.6899367303
 10
-870.1430761023
 20
233.8044839829
 10
-868.7880241079
 20
235.1595359772
 10
-867.1967291041
 20
236.7508309811
 10
-865.3741978808
 20
238.5733622044
 10
-863.3261524839
 20
240.6214076012
 10
-861.0590600176
 20
242.8885000676
 10
-858.5800432367
 20
245.3675168484
 10
-855.8968805475
 20
248.0506795377
 10
-853.0180358095
 20
250.9295242757
 10
-849.9525689287
 20
253.9949911565
 10
-846.7101060553
 20
257.2374540299
 10
-843.3008693857
 20
260.6466906995
 10
-839.7355877562
 20
264.2119425267
 10
-836.0254668398
 20
267.9220932454
 10
-832.1821593447
 20
271.7654007405
 10
-828.217794816
 20
275.7297652692
 10
-824.1448306246
 20
279.8027294606
 10
-819.9761115713
 20
283.9714783162
 10
-815.7246910734
 20
288.2228392094
 10
-811.4040099783
 20
292.5435799092
 10
-807.0275985403
 20
296.9199317425
 10
-802.609285037
 20
301.3382452458
 10
-798.1629275484
 20
305.7846325368
 10
-793.7025629683
 20
310.2449673146
 10
-789.2421983881
 20
314.7053616971
 10
-784.7958408995
 20
319.1516893834
 10
-780.3775273962
 20
323.5700028867
 10
-776.0011457605
 20
327.9464143246
 10
-771.6804348631
 20
332.2670954198
 10
-767.4290143652
 20
336.5185159177
 10
-763.2602953119
 20
340.6872647732
 10
-759.1873311205
 20
344.7602289647
 10
-755.2229665918
 20
348.7245934933
 10
-751.3796590967
 20
352.5679009885
 10
-747.6695381804
 20
356.2779921025
 10
-744.1042565508
 20
359.8433035344
 10
-740.6950198813
 20
363.2525104016
 10
-737.4525570078
 20
366.4950030774
 10
-734.387090127
 20
369.5604699582
 10
-731.508245389
 20
372.4393146962
 10
-728.8250826998
 20
375.1224773854
 10
-726.3460659189
 20
377.6014941663
 10
-724.0789734526
 20
379.8686164349
 10
-722.0309280558
 20
381.9166320294
 10
-720.2083968325
 20
383.7391632527
 10
-718.6171018286
 20
385.3304284543
 10
-717.2620498343
 20
386.6854804486
 10
-716.1475323839
 20
387.8000277013
 10
-715.277006547
 20
388.6705535382
 10
-714.6532439394
 20
389.2943161458
 10
-714.2782115145
 20
389.6693485707
 10
-714.1530417605
 20
389.7945183247
 10
-714.1530417605
 20
389.7945183247
  0
LINE
  5
C7
330
1F
100
AcDbEntity
  8
0
  6
Continuous
 62
     7
370
    25
100
AcDbLine
 10
469.4406429121
 20
-589.298306487
 30
0.0
 11
691.8684969758
 21
-974.5546617805
 31
0.0
  0
LINE
  5
C8
330
1F
100
AcDbEntity
  8
0
  6
Continuous
 62
     7
370
    25
100
AcDbLine
 10
823.3882277111
 20
-752.3535194785
 30
0.0
 11
664.296355318
 21
-476.7983081473
 31
0.0
  0
LINE
  5
C9
330
1F
100
AcDbEntity
  8
0
  6
Continuous
 62
     7
370
    25
100
AcDbLine
 10
916.8684994471
 20
-1121.5997337513
 30
0.0
 11
916.8684994471
 21
-556.5535148984
 31
0.0
  0
LINE
  5
CA
330
1F
100
AcDbEntity
  8
0
  6
Continuous
 62
     7
370
    25
100
AcDbLine
 10
691.8684969758
 20
-971.3157917813
 30
0.0
 11
691.8684969758
 21
-1121.5997337513
 31
0.0
  0
ELLIPSE
  5
CB
330
1F
100
AcDbEntity
  8
0
  6
Continuous
 62
     7
370
    25
100
AcDbEllipse
 10
804.3684982114
 20
-944.4103775721
 30
0.0
 11
112.0944105351196
 21
30.03560685526929
 31
0.0
210
0.0
220
0.0
230
1.0
 40
0.3177652438
 41
0.7004580896382445
 42
3.056652579830583
  0
ELLIPSE
  5
CC
330
1F
100
AcDbEntity
  8
0
  6
Continuous
 62
     7
370
    25
100
AcDbEllipse
 10
804.3684982114
 20
-944.4103775721
 30
0.0
 11
-72.51389841521679
 21
270.625552452631
 31
0.0
210
0.0
220
0.0
230
1.0
 40
0.3178248929
 41
4.797329054143884
 42
5.412847070022956
  0
LWPOLYLINE
  5
CD
330
1F
100
AcDbEntity
  8
0
  6
Continuous
 62
     7
370
    25
100
AcDbPolyline
 90
      113
 70
   128
 43
0.0
 10
623.1185050012
 20
-500.5653138879
 10
618.5696200076
 20
-503.1913459084
 10
613.8580890085
 20
-505.9113046261
 10
608.998703572
 20
-508.7166509002
 10
604.0067557603
 20
-511.5985565501
 10
598.8979742504
 20
-514.5479655709
 10
593.6883985522
 20
-517.5555694221
 10
588.3944409121
 20
-520.6118929462
 10
583.0327585547
 20
-523.7073681372
 10
577.6202102196
 20
-526.8322132231
 10
572.1738416727
 20
-529.9766600389
 10
566.7107856079
 20
-533.1307441411
 10
561.2482115978
 20
-536.2845770494
 10
555.8033287273
 20
-539.4282230472
 10
550.3932591536
 20
-542.5517965212
 10
545.035019667
 20
-545.6454969451
 10
539.7454848117
 20
-548.6995084908
 10
534.5412920564
 20
-551.7043224677
 10
529.4388154515
 20
-554.6503875113
 10
524.4540866047
 20
-557.5285202298
 10
519.6028210221
 20
-560.3296223102
 10
514.9002653261
 20
-563.0448904115
 10
510.3612446706
 20
-565.6657887849
 10
505.9999888855
 20
-568.1840523227
 10
501.83024838
 20
-570.5917413029
 10
497.8651624341
 20
-572.8813417777
 10
494.1171801733
 20
-575.0455921925
 10
490.59808691
 20
-577.0776871882
 10
487.3189883389
 20
-578.9712867255
 10
484.2901788277
 20
-580.7203487944
 10
481.5211730273
 20
-582.3194761844
 10
479.020716409
 20
-583.7635453752
 10
476.7966430182
 20
-585.048007695
 10
474.8559966468
 20
-586.1689410229
 10
473.2048359045
 20
-587.1226513243
 10
471.8483975371
 20
-587.9062840501
 10
470.7909120345
 20
-588.517297919
 10
470.0357195346
 20
-588.9537873409
 10
469.5851907974
 20
-589.214382052
 10
469.4407640843
 20
-589.2982744869
 10
469.6028872054
 20
-589.2051315795
 10
470.0710333253
 20
-588.9353289829
 10
470.8437378408
 20
-588.4896864361
 10
471.9185825766
 20
-587.8695985654
 10
473.2921641746
 20
-587.0770288101
 10
474.9601731196
 20
-586.1144637984
 10
476.9173700315
 20
-584.9849270367
 10
479.1575856654
 20
-583.6919789222
 10
481.673760424
 20
-582.2396939283
 10
484.4579944075
 20
-580.6326317121
 10
487.5015210714
 20
-578.8758523325
 10
490.7947638615
 20
-576.9748835524
 10
494.3273796777
 20
-574.9357200815
 10
498.0882180444
 20
-572.7647254893
 10
502.0654699415
 20
-570.4687896146
 10
506.2466039256
 20
-568.0551221138
 10
510.6184932289
 20
-565.5313007465
 10
515.1673571491
 20
-562.9052808953
 10
519.8789092216
 20
-560.1853100082
 10
524.738294658
 20
-557.3799637341
 10
529.7302424698
 20
-554.498082419
 10
534.8390239797
 20
-551.5486733983
 10
540.0485996779
 20
-548.541069547
 10
545.342557318
 20
-545.4847216881
 10
550.7042396754
 20
-542.3892464971
 10
556.1167880105
 20
-539.2643770764
 10
561.5631565574
 20
-536.1199545955
 10
567.0262126222
 20
-532.9658704932
 10
572.4887866323
 20
-529.8120375849
 10
577.9336695028
 20
-526.6683915872
 10
583.3437390764
 20
-523.5448181131
 10
588.7019785631
 20
-520.451142024
 10
593.9915134184
 20
-517.3971061435
 10
599.1957061737
 20
-514.3923408363
 10
604.2981827785
 20
-511.446227123
 10
609.2829116254
 20
-508.5680944045
 10
614.134177208
 20
-505.7669923242
 10
618.836732904
 20
-503.0517242228
 10
623.3757535595
 20
-500.4308258495
 10
627.7370093446
 20
-497.9126109813
 10
631.9067287767
 20
-495.504861166
 10
635.871835796
 20
-493.2153215262
 10
639.6198180568
 20
-491.0510711115
 10
643.1389113201
 20
-489.0189274462
 10
646.4180098912
 20
-487.1253765785
 10
649.4468194024
 20
-485.3762658399
 10
652.2158252028
 20
-483.7771871196
 10
654.7162818211
 20
-482.3331179288
 10
656.9403341385
 20
-481.0485947739
 10
658.8810015833
 20
-479.9277222811
 10
660.5321623256
 20
-478.9739633101
 10
661.888600693
 20
-478.1903305843
 10
662.9460861956
 20
-477.5793167153
 10
663.7012786955
 20
-477.1428272934
 10
664.1518074327
 20
-476.8822325824
 10
664.2962341458
 20
-476.7983888171
 10
664.1341110247
 20
-476.8914830549
 10
663.6659649048
 20
-477.1613099862
 10
662.8932603893
 20
-477.6069281983
 10
661.8184156535
 20
-478.227016069
 10
660.4448340555
 20
-479.0195858242
 10
658.7768251105
 20
-479.9821508359
 10
656.8196281985
 20
-481.1116875976
 10
654.5794125647
 20
-482.4046113773
 10
652.0632378061
 20
-483.856920706
 10
649.2790038226
 20
-485.4639829223
 10
646.2354771586
 20
-487.2207866366
 10
642.9422343686
 20
-489.1217554168
 10
639.4096185524
 20
-491.1609188876
 10
635.6487801857
 20
-493.331889145
 10
631.6715282886
 20
-495.6278250197
 10
627.4903732311
 20
-498.0415046899
 10
623.1185050012
 20
-500.5653138879
  0
LWPOLYLINE
  5
CE
330
1F
100
AcDbEntity
  8
0
  6
Continuous
 62
     7
370
    25
100
AcDbPolyline
 90
      102
 70
   128
 43
0.0
 10
612.8684968105
 20
-506.4844655803
 10
608.7351520843
 20
-508.8706113976
 10
604.4398054092
 20
-511.3502636184
 10
599.999138376
 20
-513.9139379686
 10
595.4302619467
 20
-516.551561513
 10
590.7509028224
 20
-519.2530950648
 10
585.9791420012
 20
-522.0079054379
 10
581.1334582418
 20
-524.8054947156
 10
576.2325805501
 20
-527.6349527191
 10
571.2954671054
 20
-530.4853828607
 10
566.3412183326
 20
-533.3456846473
 10
561.389029487
 20
-536.2048244009
 10
556.4580299695
 20
-539.0518063655
 10
551.5673123025
 20
-541.8755342935
 10
546.7357977867
 20
-544.6651080261
 10
541.9821495736
 20
-547.4097276821
 10
537.3248069093
 20
-550.0988198744
 10
532.781734888
 20
-552.721938874
 10
528.3705719659
 20
-555.2689490988
 10
524.1083296646
 20
-557.729955171
 10
520.0115295488
 20
-560.0954904964
 10
516.0959924917
 20
-562.3563956029
 10
512.3768808222
 20
-564.5038911401
 10
508.8686087623
 20
-566.5297025997
 10
505.5847265238
 20
-568.4260299009
 10
502.5379203082
 20
-570.1854257211
 10
499.7400070382
 20
-571.8011635551
 10
497.2017973803
 20
-573.2669761269
 10
494.9331273554
 20
-574.5771831502
 10
492.9427477028
 20
-575.7267552129
 10
491.238387101
 20
-576.7111799338
 10
489.8265941164
 20
-577.5266505738
 10
488.7128899863
 20
-578.1700751524
 10
487.9015526157
 20
-578.6389578347
 10
487.3957114083
 20
-578.9314415182
 10
487.1973314607
 20
-579.0463899655
 10
487.3072082947
 20
-578.9834395227
 10
487.7248677584
 20
-578.7427162423
 10
488.4487240765
 20
-578.3252069832
 10
489.4759771178
 20
-577.7325753939
 10
490.802657176
 20
-576.9670387205
 10
492.4235880912
 20
-576.0316081264
 10
494.3325611059
 20
-574.9298666289
 10
496.5221504721
 20
-573.6660999256
 10
498.983908381
 20
-572.2452081711
 10
501.7082780346
 20
-570.6726345128
 10
504.6847530138
 20
-568.9545164184
 10
507.901798253
 20
-567.0974879722
 10
511.3469830661
 20
-565.1087247423
 10
515.0069679756
 20
-562.9959513964
 10
518.867589994
 20
-560.7672707916
 10
522.9139199172
 20
-558.4313742478
 10
527.1303034839
 20
-555.9972987779
 10
531.5004206439
 20
-553.4743928723
 10
536.0073688647
 20
-550.8724874169
 10
540.6337204245
 20
-548.2016192701
 10
545.3615655467
 20
-545.4721280398
 10
550.17262567
 20
-542.6945906827
 10
555.0482600337
 20
-539.8796960396
 10
559.969639533
 20
-537.0383877958
 10
564.9176953532
 20
-534.1816508054
 10
569.8733270695
 20
-531.3205126046
 10
574.817302548
 20
-528.4660768899
 10
579.7305371688
 20
-525.6293379482
 10
584.5940148008
 20
-522.8213479745
 10
589.3889195103
 20
-520.0529220093
 10
594.0966803421
 20
-517.3347094263
 10
598.6991214678
 20
-514.6773505776
 10
603.1784095022
 20
-512.0910448663
 10
607.5172062855
 20
-509.5858032101
 10
611.6987479086
 20
-507.1713537441
 10
615.7068710551
 20
-504.8570536051
 10
619.526023538
 20
-502.6517855177
 10
623.1414697653
 20
-500.5640824901
 10
626.5391906416
 20
-498.602088284
 10
629.7060626918
 20
-496.7733566381
 10
632.6298369882
 20
-495.0849607801
 10
635.299197102
 20
-493.5434599564
 10
637.7037907134
 20
-492.154735175
 10
639.8343455157
 20
-490.924262959
 10
641.6826218002
 20
-489.8567777009
 10
643.2414546025
 20
-488.9563690017
 10
644.5048063866
 20
-488.226548581
 10
645.4678039232
 20
-487.6701559706
 10
646.1266961426
 20
-487.2892855149
 10
646.4789805759
 20
-487.0854566938
 10
646.5232453036
 20
-487.0594377092
 10
646.2593744218
 20
-487.2113701719
 10
645.6883162346
 20
-487.5406352743
 10
644.8123387693
 20
-488.0459495855
 10
643.6348111396
 20
-488.725345282
 10
642.1602852052
 20
-489.5762689999
 10
640.3944876691
 20
-490.5953673721
 10
638.3442226132
 20
-491.7786649786
 10
636.0174215474
 20
-493.1216571087
 10
633.423095995
 20
-494.6190937845
 10
630.5712927107
 20
-496.2652732918
 10
627.4730304615
 20
-498.0536649883
 10
624.1403210991
 20
-499.9775298274
 10
620.5860022901
 20
-502.0292625622
 10
616.8238975423
 20
-504.2010780385
 10
612.8684968105
 20
-506.4844655803
  0
LWPOLYLINE
  5
CF
330
1F
100
AcDbEntity
  8
0
  6
Continuous
 62
     7
370
    25
100
AcDbPolyline
 90
      113
 70
   128
 43
0.0
 10
724.8189874353
 20
-1167.5226888248
 10
720.4837553535
 20
-1164.8755238161
 10
716.4124560566
 20
-1162.0921964845
 10
712.6179002111
 20
-1159.1814647982
 10
709.1120239361
 20
-1156.1524881845
 10
705.9058618034
 20
-1153.014793695
 10
703.0095000807
 20
-1149.7782550959
 10
700.4320490727
 20
-1146.4530586529
 10
698.181625999
 20
-1143.0496628331
 10
696.2653009934
 20
-1139.5787792966
 10
694.6891089579
 20
-1136.0513249952
 10
693.4580074154
 20
-1132.478403924
 10
692.5758738761
 20
-1128.8712508566
 10
692.0454821294
 20
-1125.2412237416
 10
691.8684969758
 20
-1121.5997337513
 10
692.0454821294
 20
-1117.9582437609
 10
692.5758738761
 20
-1114.3282166459
 10
693.4580074154
 20
-1110.7210635786
 10
694.6891089579
 20
-1107.1481425074
 10
696.2653009934
 20
-1103.6206882059
 10
698.181625999
 20
-1100.1498046694
 10
700.4320490727
 20
-1096.7464088496
 10
703.0095000807
 20
-1093.4212124066
 10
705.9058618034
 20
-1090.1846738075
 10
709.1120239361
 20
-1087.046979318
 10
712.6179002111
 20
-1084.0180027044
 10
716.4124560566
 20
-1081.107271018
 10
720.4837553535
 20
-1078.3239436864
 10
724.8189874353
 20
-1075.6767786778
 10
729.404508577
 20
-1073.1741024679
 10
734.2258953368
 20
-1070.8237914116
 10
739.2679768248
 20
-1068.6332409492
 10
744.5148867282
 20
-1066.6093416556
 10
749.9501219216
 20
-1064.7584636534
 10
755.5565786872
 20
-1063.0864296211
 10
761.3166119832
 20
-1061.5984988257
 10
767.2121052504
 20
-1060.2993572382
 10
773.2245033386
 20
-1059.1930863602
 10
779.3348954838
 20
-1058.2831700662
 10
785.524046918
 20
-1057.5724702734
 10
791.7724963338
 20
-1057.0632254207
 10
798.0605690556
 20
-1056.7570367827
 10
804.3684982114
 20
-1056.6548654283
 10
810.6764273672
 20
-1056.7570367827
 10
816.964500089
 20
-1057.0632254207
 10
823.2129495049
 20
-1057.5724702734
 10
829.402100939
 20
-1058.2831700662
 10
835.5124930842
 20
-1059.1930863602
 10
841.5248911725
 20
-1060.2993572382
 10
847.4203844396
 20
-1061.5984988257
 10
853.1804177357
 20
-1063.0864296211
 10
858.7868745012
 20
-1064.7584636534
 10
864.2221096947
 20
-1066.6093416556
 10
869.4690195981
 20
-1068.6332409492
 10
874.5111010861
 20
-1070.8237914116
 10
879.3324878459
 20
-1073.1741024679
 10
883.9180089876
 20
-1075.6767786778
 10
888.2532410694
 20
-1078.3239436864
 10
892.3245403662
 20
-1081.107271018
 10
896.1190962117
 20
-1084.0180027044
 10
899.6249724867
 20
-1087.046979318
 10
902.8311346194
 20
-1090.1846738075
 10
905.7274963421
 20
-1093.4212124066
 10
908.3049473501
 20
-1096.7464088496
 10
910.5553704238
 20
-1100.1498046694
 10
912.4716954294
 20
-1103.6206882059
 10
914.0478874649
 20
-1107.1481425074
 10
915.2789890074
 20
-1110.7210635786
 10
916.1611225467
 20
-1114.3282166459
 10
916.6915142935
 20
-1117.9582437609
 10
916.8684994471
 20
-1121.5997337513
 10
916.6915142935
 20
-1125.2412237416
 10
916.1611225467
 20
-1128.8712508566
 10
915.2789890074
 20
-1132.478403924
 10
914.0478874649
 20
-1136.0513249952
 10
912.4716954294
 20
-1139.5787792966
 10
910.5553704238
 20
-1143.0496628331
 10
908.3049473501
 20
-1146.4530586529
 10
905.7274963421
 20
-1149.7782550959
 10
902.8311346194
 20
-1153.014793695
 10
899.6249724867
 20
-1156.1524881845
 10
896.1190962117
 20
-1159.1814647982
 10
892.3245403662
 20
-1162.0921964845
 10
888.2532410694
 20
-1164.8755238161
 10
883.9180089876
 20
-1167.5226888248
 10
879.3324878459
 20
-1170.0253650346
 10
874.5111010861
 20
-1172.3756760909
 10
869.4690195981
 20
-1174.5662265533
 10
864.2221096947
 20
-1176.590125847
 10
858.7868745012
 20
-1178.4410038491
 10
853.1804177357
 20
-1180.1130378814
 10
847.4203844396
 20
-1181.6009686769
 10
841.5248911725
 20
-1182.9001102643
 10
835.5124930842
 20
-1184.0063811424
 10
829.402100939
 20
-1184.9162974364
 10
823.2129495049
 20
-1185.6269972292
 10
816.964500089
 20
-1186.1362420818
 10
810.6764273672
 20
-1186.4424307198
 10
804.3684982114
 20
-1186.5446020742
 10
798.0605690556
 20
-1186.4424307198
 10
791.7724963338
 20
-1186.1362420818
 10
785.524046918
 20
-1185.6269972292
 10
779.3348954838
 20
-1184.9162974364
 10
773.2245033386
 20
-1184.0063811424
 10
767.2121052504
 20
-1182.9001102643
 10
761.3166119832
 20
-1181.6009686769
 10
755.5565786872
 20
-1180.1130378814
 10
749.9501219216
 20
-1178.4410038491
 10
744.5148867282
 20
-1176.590125847
 10
739.2679768248
 20
-1174.5662265533
 10
734.2258953368
 20
-1172.3756760909
 10
729.404508577
 20
-1170.0253650346
 10
724.8189874353
 20
-1167.5226888248
  0
LWPOLYLINE
  5
D0
330
1F
100
AcDbEntity
  8
0
  6
Continuous
 62
     7
370
    25
100
AcDbPolyline
 90
       52
 70
   128
 43
0.0
 10
698.0678321422
 20
-535.2922457669
 10
698.181625999
 20
-535.1035858166
 10
700.4320490727
 20
-531.7001899967
 10
703.0095000807
 20
-528.3749935537
 10
705.9058618034
 20
-525.1384549546
 10
709.1120239361
 20
-522.0007604652
 10
712.6179002111
 20
-518.9717838515
 10
716.4124560566
 20
-516.0610521651
 10
720.4837553535
 20
-513.2777248335
 10
724.8189874353
 20
-510.6305598249
 10
729.404508577
 20
-508.127883615
 10
734.2258953368
 20
-505.7775725588
 10
739.2679768248
 20
-503.5870220963
 10
744.5148867282
 20
-501.5631228027
 10
749.9501219216
 20
-499.7122448005
 10
755.5565786872
 20
-498.0402107682
 10
761.3166119832
 20
-496.5522799728
 10
767.2121052504
 20
-495.2531383854
 10
773.2245033386
 20
-494.1468675073
 10
779.3348954838
 20
-493.2369512133
 10
785.524046918
 20
-492.5262514205
 10
791.7724963338
 20
-492.0170065678
 10
798.0605690556
 20
-491.7108179298
 10
804.3684982114
 20
-491.6086465754
 10
810.6764273672
 20
-491.7108179298
 10
816.964500089
 20
-492.0170065678
 10
823.2129495049
 20
-492.5262514205
 10
829.402100939
 20
-493.2369512133
 10
835.5124930842
 20
-494.1468675073
 10
841.5248911725
 20
-495.2531383854
 10
847.4203844396
 20
-496.5522799728
 10
853.1804177357
 20
-498.0402107682
 10
858.7868745012
 20
-499.7122448005
 10
864.2221096947
 20
-501.5631228027
 10
869.4690195981
 20
-503.5870220963
 10
874.5111010861
 20
-505.7775725588
 10
879.3324878459
 20
-508.127883615
 10
883.9180089876
 20
-510.6305598249
 10
888.2532410694
 20
-513.2777248335
 10
892.3245403662
 20
-516.0610521651
 10
896.1190962117
 20
-518.9717838515
 10
899.6249724867
 20
-522.0007604652
 10
902.8311346194
 20
-525.1384549546
 10
905.7274963421
 20
-528.3749935537
 10
908.3049473501
 20
-531.7001899967
 10
910.5553704238
 20
-535.1035858166
 10
912.4716954294
 20
-538.5744693531
 10
914.0478874649
 20
-542.1019236545
 10
915.2789890074
 20
-545.6748447257
 10
916.1611225467
 20
-549.281997793
 10
916.6915142935
 20
-552.912024908
 10
916.8684994471
 20
-556.5535148984
  0
LWPOLYLINE
  5
D1
330
1F
100
AcDbEntity
  8
0
  6
Continuous
 62
     7
370
    25
100
AcDbPolyline
 90
      102
 70
   128
 43
0.0
 10
739.3146742158
 20
-1159.1545069681
 10
735.3961414398
 20
-1156.7470944301
 10
731.7444508984
 20
-1154.2037028108
 10
728.3737290299
 20
-1151.5341720413
 10
725.2970143569
 20
-1148.7488332321
 10
722.5262120472
 20
-1145.8584581099
 10
720.0720379369
 20
-1142.8742327867
 10
717.9439987745
 20
-1139.8076976924
 10
716.1503131956
 20
-1136.6707202029
 10
714.6979275276
 20
-1133.4754368541
 10
713.5924604722
 20
-1130.2342092426
 10
712.8381873003
 20
-1126.9595784047
 10
712.4380319497
 20
-1123.6642055105
 10
712.3935327802
 20
-1120.3608520951
 10
712.7048636476
 20
-1117.0622857759
 10
713.3708312693
 20
-1113.7812787326
 10
714.3888488824
 20
-1110.5305164661
 10
715.7549757566
 20
-1107.32257803
 10
717.4639329991
 20
-1104.1698782443
 10
719.5091088231
 20
-1101.0846099102
 10
721.8825927919
 20
-1098.0787118755
 10
724.5751929413
 20
-1095.1638104884
 10
727.5764976827
 20
-1092.3511838618
 10
730.8749008275
 20
-1089.6517170133
 10
734.4576315515
 20
-1087.0758480709
 10
738.310835066
 20
-1084.6335460332
 10
742.4196062038
 20
-1082.3342609675
 10
746.7680394689
 20
-1080.1868829509
 10
751.3393215612
 20
-1078.1997251534
 10
756.1157646339
 20
-1076.3804742249
 10
761.0788866354
 20
-1074.7361682464
 10
766.2094844079
 20
-1073.2731666957
 10
771.4877186393
 20
-1071.9971318198
 10
776.8931546938
 20
-1070.9129989809
 10
782.4048903686
 20
-1070.0249637314
 10
788.0016019925
 20
-1069.3364612843
 10
793.6616339879
 20
-1068.8501573891
 10
799.3630857987
 20
-1068.5679285633
 10
805.0839040864
 20
-1068.4908696954
 10
810.801953853
 20
-1068.6192803592
 10
816.4951159055
 20
-1068.9526602514
 10
822.1413606131
 20
-1069.4897213572
 10
827.7188427374
 20
-1070.2283879503
 10
833.2059909944
 20
-1071.1657996343
 10
838.5815712751
 20
-1072.2983295905
 10
843.8247841096
 20
-1073.6215982648
 10
848.9153555468
 20
-1075.1304832511
 10
853.8335793009
 20
-1076.8191497057
 10
858.5604339722
 20
-1078.6810632725
 10
863.0776278284
 20
-1080.7090220177
 10
867.3676893546
 20
-1082.8951782892
 10
871.4140192779
 20
-1085.231074833
 10
875.2009633367
 20
-1087.7076746361
 10
878.7138715499
 20
-1090.3153951425
 10
881.9391499126
 20
-1093.044150261
 10
884.8643229576
 20
-1095.8833803995
 10
887.4780716218
 20
-1098.8221047377
 10
889.7702885641
 20
-1101.8489470789
 10
891.7321005559
 20
-1104.9522035203
 10
893.3559211645
 20
-1108.1198667835
 10
894.6354678751
 20
-1111.3396786782
 10
895.565785799
 20
-1114.5991863673
 10
896.1432792831
 20
-1117.8857788631
 10
896.3657171787
 20
-1121.1867387305
 10
896.2322328411
 20
-1124.489296831
 10
895.7433452034
 20
-1127.7806749025
 10
894.9009508739
 20
-1131.0481418234
 10
893.7083004282
 20
-1134.279054672
 10
892.1700115803
 20
-1137.4609119493
 10
890.2920349386
 20
-1140.581403762
 10
888.0816382
 20
-1143.6284635254
 10
885.5473705896
 20
-1146.590294575
 10
882.6990404691
 20
-1149.4554439201
 10
879.5476639711
 20
-1152.2128258134
 10
876.1054327301
 20
-1154.8517707938
 10
872.3856618575
 20
-1157.3620678846
 10
868.402751746
 20
-1159.7340109742
 10
864.1721021296
 20
-1161.9584180153
 10
859.7100827786
 20
-1164.026684438
 10
855.0339623762
 20
-1165.930812043
 10
850.1618222498
 20
-1167.6634283904
 10
845.1125178456
 20
-1169.2178333702
 10
839.9055855451
 20
-1170.5880165002
 10
834.5611649564
 20
-1171.7686713725
 10
829.0999370112
 20
-1172.7552313891
 10
823.543022549
 20
-1173.5438796467
 10
817.9119269992
 20
-1174.1315687054
 10
812.2284402826
 20
-1174.5160236301
 10
806.5145367123
 20
-1174.6957511142
 10
800.7923407495
 20
-1174.6700622905
 10
795.083968953
 20
-1174.4390575236
 10
789.4115273448
 20
-1174.00362489
 10
783.7969480913
 20
-1173.3654523428
 10
778.2619552587
 20
-1172.5270079434
 10
772.8279620802
 20
-1171.4915352993
 10
767.5159919307
 20
-1170.2630444401
 10
762.3466019355
 20
-1168.8462798829
 10
757.3397828717
 20
-1167.2467297568
 10
752.5149117529
 20
-1165.4705801826
 10
747.8906477793
 20
-1163.524703867
 10
743.4848868977
 20
-1161.4166277891
 10
739.3146742158
 20
-1159.1545069681
  0
ENDSEC
  0
SECTION
  2
OBJECTS
  0
DICTIONARY
  5
C
330
0
100
AcDbDictionary
281
     1
  3
ACAD_GROUP
350
D
  3
ACAD_LAYOUT
350
1A
  3
ACAD_MLINESTYLE
350
17
  3
ACAD_PLOTSETTINGS
350
19
  3
ACAD_PLOTSTYLENAME
350
E
  3
ACAD_SCALELIST
350
47
  0
DICTIONARY
  5
D
102
{ACAD_REACTORS
330
C
102
}
330
C
100
AcDbDictionary
281
     1
  0
DICTIONARY
  5
1A
102
{ACAD_REACTORS
330
C
102
}
330
C
100
AcDbDictionary
281
     1
  3
Layout1
350
1E
  3
Layout2
350
26
  3
Model
350
22
  0
DICTIONARY
  5
17
102
{ACAD_REACTORS
330
C
102
}
330
C
100
AcDbDictionary
281
     1
  3
Standard
350
18
  0
DICTIONARY
  5
19
102
{ACAD_REACTORS
330
C
102
}
330
C
100
AcDbDictionary
281
     1
  0
ACDBDICTIONARYWDFLT
  5
E
102
{ACAD_REACTORS
330
C
102
}
330
C
100
AcDbDictionary
281
     1
  3
Normal
350
F
100
AcDbDictionaryWithDefault
340
F
  0
DICTIONARY
  5
47
102
{ACAD_REACTORS
330
C
102
}
330
C
100
AcDbDictionary
281
     1
  3
A0
350
48
  3
A1
350
49
  3
A2
350
4A
  3
A3
350
4B
  3
A4
350
4C
  3
A5
350
4D
  3
A6
350
4E
  3
A7
350
4F
  3
A8
350
50
  3
A9
350
51
  3
B0
350
52
  3
B1
350
53
  3
B2
350
54
  3
B3
350
55
  3
B4
350
56
  3
B5
350
57
  3
B6
350
58
  3
B7
350
59
  3
B8
350
5A
  3
B9
350
5B
  3
C0
350
5C
  3
C1
350
5D
  3
C2
350
5E
  3
C3
350
5F
  3
C4
350
60
  3
C5
350
61
  3
C6
350
62
  3
C7
350
63
  3
C8
350
64
  3
C9
350
65
  3
D0
350
66
  3
D1
350
67
  3
D2
350
68
  0
LAYOUT
  5
1E
102
{ACAD_REACTORS
330
1A
102
}
330
1A
100
AcDbPlotSettings
  1

  2
none_device
  4

  6

 40
0.0
 41
0.0
 42
0.0
 43
0.0
 44
0.0
 45
0.0
 46
0.0
 47
0.0
 48
0.0
 49
0.0
140
0.0
141
0.0
142
1.0
143
1.0
 70
   688
 72
     1
 73
     0
 74
     5
  7

 75
    16
147
1.0
148
0.0
149
0.0
100
AcDbLayout
  1
Layout1
 70
     1
 71
     1
 10
0.0
 20
0.0
 11
420.0
 21
297.0
 12
0.0
 22
0.0
 32
0.0
 14
1.0000000000E+20
 24
1.0000000000E+20
 34
1.0000000000E+20
 15
-1.0000000000E+20
 25
-1.0000000000E+20
 35
-1.0000000000E+20
146
0.0
 13
0.0
 23
0.0
 33
0.0
 16
1.0
 26
0.0
 36
0.0
 17
0.0
 27
1.0
 37
0.0
 76
     0
330
1B
  0
LAYOUT
  5
26
102
{ACAD_REACTORS
330
1A
102
}
330
1A
100
AcDbPlotSettings
  1

  2
none_device
  4

  6

 40
0.0
 41
0.0
 42
0.0
 43
0.0
 44
0.0
 45
0.0
 46
0.0
 47
0.0
 48
0.0
 49
0.0
140
0.0
141
0.0
142
1.0
143
1.0
 70
   688
 72
     1
 73
     0
 74
     5
  7

 75
    16
147
1.0
148
0.0
149
0.0
100
AcDbLayout
  1
Layout2
 70
     1
 71
     2
 10
0.0
 20
0.0
 11
0.0
 21
0.0
 12
0.0
 22
0.0
 32
0.0
 14
0.0
 24
0.0
 34
0.0
 15
0.0
 25
0.0
 35
0.0
146
0.0
 13
0.0
 23
0.0
 33
0.0
 16
1.0
 26
0.0
 36
0.0
 17
0.0
 27
1.0
 37
0.0
 76
     0
330
23
  0
LAYOUT
  5
22
102
{ACAD_REACTORS
330
1A
102
}
330
1A
100
AcDbPlotSettings
  1

  2
none_device
  4
Letter_(8.50_x_11.00_Inches)
  6

 40
6.35
 41
6.35
 42
6.35000508
 43
6.35000508
 44
215.9
 45
279.4
 46
0.0
 47
0.0
 48
0.0
 49
0.0
140
0.0
141
0.0
142
1.0
143
1.0
 70
  1712
 72
     1
 73
     0
 74
     0
  7

 75
     0
147
1.0
148
0.0
149
0.0
100
AcDbLayout
  1
Model
 70
     1
 71
     0
 10
0.0
 20
0.0
 11
279.4
 21
215.9
 12
0.0
 22
0.0
 32
0.0
 14
0.0
 24
0.0
 34
0.0
 15
279.4
 25
215.9
 35
0.0
146
0.0
 13
0.0
 23
0.0
 33
0.0
 16
1.0
 26
0.0
 36
0.0
 17
0.0
 27
1.0
 37
0.0
 76
     0
330
1F
331
29
  0
MLINESTYLE
  5
18
102
{ACAD_REACTORS
330
17
102
}
330
17
100
AcDbMlineStyle
  2
Standard
 70
     0
  3

 62
   256
 51
90.0
 52
90.0
 71
     2
 49
0.5
 62
   256
  6
BYLAYER
 49
-0.5
 62
   256
  6
BYLAYER
  0
ACDBPLACEHOLDER
  5
F
102
{ACAD_REACTORS
330
E
102
}
330
E
  0
SCALE
  5
48
102
{ACAD_REACTORS
330
47
102
}
330
47
100
AcDbScale
 70
     0
300
1:1
140
1.0
141
1.0
290
     1
  0
SCALE
  5
49
102
{ACAD_REACTORS
330
47
102
}
330
47
100
AcDbScale
 70
     0
300
1:2
140
1.0
141
2.0
290
     0
  0
SCALE
  5
4A
102
{ACAD_REACTORS
330
47
102
}
330
47
100
AcDbScale
 70
     0
300
1:4
140
1.0
141
4.0
290
     0
  0
SCALE
  5
4B
102
{ACAD_REACTORS
330
47
102
}
330
47
100
AcDbScale
 70
     0
300
1:5
140
1.0
141
5.0
290
     0
  0
SCALE
  5
4C
102
{ACAD_REACTORS
330
47
102
}
330
47
100
AcDbScale
 70
     0
300
1:8
140
1.0
141
8.0
290
     0
  0
SCALE
  5
4D
102
{ACAD_REACTORS
330
47
102
}
330
47
100
AcDbScale
 70
     0
300
1:10
140
1.0
141
10.0
290
     0
  0
SCALE
  5
4E
102
{ACAD_REACTORS
330
47
102
}
330
47
100
AcDbScale
 70
     0
300
1:16
140
1.0
141
16.0
290
     0
  0
SCALE
  5
4F
102
{ACAD_REACTORS
330
47
102
}
330
47
100
AcDbScale
 70
     0
300
1:20
140
1.0
141
20.0
290
     0
  0
SCALE
  5
50
102
{ACAD_REACTORS
330
47
102
}
330
47
100
AcDbScale
 70
     0
300
1:30
140
1.0
141
30.0
290
     0
  0
SCALE
  5
51
102
{ACAD_REACTORS
330
47
102
}
330
47
100
AcDbScale
 70
     0
300
1:40
140
1.0
141
40.0
290
     0
  0
SCALE
  5
52
102
{ACAD_REACTORS
330
47
102
}
330
47
100
AcDbScale
 70
     0
300
1:50
140
1.0
141
50.0
290
     0
  0
SCALE
  5
53
102
{ACAD_REACTORS
330
47
102
}
330
47
100
AcDbScale
 70
     0
300
1:100
140
1.0
141
100.0
290
     0
  0
SCALE
  5
54
102
{ACAD_REACTORS
330
47
102
}
330
47
100
AcDbScale
 70
     0
300
2:1
140
2.0
141
1.0
290
     0
  0
SCALE
  5
55
102
{ACAD_REACTORS
330
47
102
}
330
47
100
AcDbScale
 70
     0
300
4:1
140
4.0
141
1.0
290
     0
  0
SCALE
  5
56
102
{ACAD_REACTORS
330
47
102
}
330
47
100
AcDbScale
 70
     0
300
8:1
140
8.0
141
1.0
290
     0
  0
SCALE
  5
57
102
{ACAD_REACTORS
330
47
102
}
330
47
100
AcDbScale
 70
     0
300
10:1
140
10.0
141
1.0
290
     0
  0
SCALE
  5
58
102
{ACAD_REACTORS
330
47
102
}
330
47
100
AcDbScale
 70
     0
300
100:1
140
100.0
141
1.0
290
     0
  0
SCALE
  5
59
102
{ACAD_REACTORS
330
47
102
}
330
47
100
AcDbScale
 70
     0
300
1/128" = 1'-0"
140
0.0078125
141
12.0
290
     0
  0
SCALE
  5
5A
102
{ACAD_REACTORS
330
47
102
}
330
47
100
AcDbScale
 70
     0
300
1/64" = 1'-0"
140
0.015625
141
12.0
290
     0
  0
SCALE
  5
5B
102
{ACAD_REACTORS
330
47
102
}
330
47
100
AcDbScale
 70
     0
300
1/32" = 1'-0"
140
0.03125
141
12.0
290
     0
  0
SCALE
  5
5C
102
{ACAD_REACTORS
330
47
102
}
330
47
100
AcDbScale
 70
     0
300
1/16" = 1'-0"
140
0.0625
141
12.0
290
     0
  0
SCALE
  5
5D
102
{ACAD_REACTORS
330
47
102
}
330
47
100
AcDbScale
 70
     0
300
3/32" = 1'-0"
140
0.09375
141
12.0
290
     0
  0
SCALE
  5
5E
102
{ACAD_REACTORS
330
47
102
}
330
47
100
AcDbScale
 70
     0
300
1/8" = 1'-0"
140
0.125
141
12.0
290
     0
  0
SCALE
  5
5F
102
{ACAD_REACTORS
330
47
102
}
330
47
100
AcDbScale
 70
     0
300
3/16" = 1'-0"
140
0.1875
141
12.0
290
     0
  0
SCALE
  5
60
102
{ACAD_REACTORS
330
47
102
}
330
47
100
AcDbScale
 70
     0
300
1/4" = 1'-0"
140
0.25
141
12.0
290
     0
  0
SCALE
  5
61
102
{ACAD_REACTORS
330
47
102
}
330
47
100
AcDbScale
 70
     0
300
3/8" = 1'-0"
140
0.375
141
12.0
290
     0
  0
SCALE
  5
62
102
{ACAD_REACTORS
330
47
102
}
330
47
100
AcDbScale
 70
     0
300
1/2" = 1'-0"
140
0.5
141
12.0
290
     0
  0
SCALE
  5
63
102
{ACAD_REACTORS
330
47
102
}
330
47
100
AcDbScale
 70
     0
300
3/4" = 1'-0"
140
0.75
141
12.0
290
     0
  0
SCALE
  5
64
102
{ACAD_REACTORS
330
47
102
}
330
47
100
AcDbScale
 70
     0
300
1" = 1'-0"
140
1.0
141
12.0
290
     0
  0
SCALE
  5
65
102
{ACAD_REACTORS
330
47
102
}
330
47
100
AcDbScale
 70
     0
300
1-1/2" = 1'-0"
140
1.5
141
12.0
290
     0
  0
SCALE
  5
66
102
{ACAD_REACTORS
330
47
102
}
330
47
100
AcDbScale
 70
     0
300
3" = 1'-0"
140
3.0
141
12.0
290
     0
  0
SCALE
  5
67
102
{ACAD_REACTORS
330
47
102
}
330
47
100
AcDbScale
 70
     0
300
6" = 1'-0"
140
6.0
141
12.0
290
     0
  0
SCALE
  5
68
102
{ACAD_REACTORS
330
47
102
}
330
47
100
AcDbScale
 70
     0
300
1'-0" = 1'-0"
140
12.0
141
12.0
290
     0
  0
ENDSEC
  0
EOF
